Guitaretab - guitar tabs
Song name
# A B C D E F G H I J K L M N O P Q R S T U V W X Y Z

Nickelback - How You Remind Me tab

I am an absolute Nickelback freak, so I made this tab of How You Remind Me. It is by far 
best song, and so I thought well someone had to tab it right, so I guess it's me. Here 
How You Remind Me, a fantastic song, tabbed correctly for once. Enjoy, and post comments. :)

Tuning:
Drop D

Verse 1:

e|---3-3--x-x--3-3--x-x--1-1--x-x--1-1--x-x---|
B|---3-3--x-x--3-3--x-x--1-1--x-x--1-1--x-x---|
G|---5-5--x-x--5-5--x-x--3-3--x-x--3-3--x-x---|
D|---5-5--x-x--5-5--x-x--3-3--x-x--3-3--x-x---|
A|---3-3--x-x--3-3--x-x--1-1--x-x--1-1--x-x---|
E|---x-x--x-x--3-3--x-x--x-x--x-x--1-1--x-x---|
Never made it as a wise man
I couldn't cut it as a poor man stealing

e|---3-3--x-x--3-3--x-x--1-1--x-x--1-1--x-x---|
B|---3-3--x-x--3-3--x-x--1-1--x-x--1-1--x-x---|
G|---5-5--x-x--5-5--x-x--3-3--x-x--3-3--x-x---|
D|---5-5--x-x--5-5--x-x--3-3--x-x--3-3--x-x---|
A|---3-3--x-x--3-3--x-x--1-1--x-x--1-1--x-x---|
E|---x-x--x-x--3-3--x-x--x-x--x-x--1-1--x-x---|
Tired of living like a blind man
I'm sick of sight without a sense of feeling

e|---3-3--x-x--3-3--x-x--1----|
B|---3-3--x-x--3-3--x-x--1----|
G|---5-5--x-x--5-5--x-x--3----|
D|---5-5--x-x--5-5--x-x--3----|
A|---3-3--x-x--3-3--x-x--1----|
E|---x-x--x-x--3-3--x-x--x----|
And this is how you remind me


e|---3-3--x-x--3-3--x-x--1-1--x-x--1-1--x-x---|
B|---3-3--x-x--3-3--x-x--1-1--x-x--1-1--x-x---|
G|---5-5--x-x--5-5--x-x--3-3--x-x--3-3--x-x---|
D|---5-5--x-x--5-5--x-x--3-3--x-x--3-3--x-x---|
A|---3-3--x-x--3-3--x-x--1-1--x-x--1-1--x-x---|
E|---x-x--x-x--3-3--x-x--x-x--x-x--1-1--x-x---|
This is how you remind me
Of what I really am

e|---3-3--x-x--3-3--x-x--1-1--x-x--1-1--x-x---|
B|---3-3--x-x--3-3--x-x--1-1--x-x--1-1--x-x---|
G|---5-5--x-x--5-5--x-x--3-3--x-x--3-3--x-x---|
D|---5-5--x-x--5-5--x-x--3-3--x-x--3-3--x-x---|
A|---3-3--x-x--3-3--x-x--1-1--x-x--1-1--x-x---|
E|---x-x--x-x--3-3--x-x--x-x--x-x--1-1--x-x---|
This is how you remind me
Of what I really am


Main Chorus:

e|---3-3--x-x--x-x--x-x--1-1--x-x--x--x--x-x--|
B|---3-3--x-x--x-x--x-x--1-1--x-x--x--x--x-x--|
G|---5-5--x-x--x-x--x-x--3-3--x-x--x--x--x-x--|
D|---5-5--x-x--1-1--x-x--3-3--x-x--3--3--x-x--|
A|---3-3--x-x--1-1--x-x--1-1--x-x--3--3--x-x--|
E|---x-x--x-x--x-x--x-x--x-x--x-x-(1)(1)-x-x--|
It's not like you to say sorry
I was waiting on a different story

e|---3-3--x-x--x-x--x-x--1-1--x-x--x--x--x-x--|
B|---3-3--x-x--x-x--x-x--1-1--x-x--x--x--x-x--|
G|---5-5--x-x--x-x--x-x--3-3--x-x--x--x--x-x--|
D|---5-5--x-x--1-1--x-x--3-3--x-x--3--3--x-x--|
A|---3-3--x-x--1-1--x-x--1-1--x-x--3--3--x-x--|
E|---x-x--x-x--x-x--x-x--x-x--x-x-(1)(1)-x-x--|
This time I'm mistaken
For handing you a heart worth breaking

       P.M.     P.M.
e|---3-3--x-x--x-x--x-x--1-1--x-x--x--x--x-x--|
B|---3-3--x-x--x-x--x-x--1-1--x-x--x--x--x-x--|
G|---5-5--x-x--x-x--x-x--3-3--x-x--x--x--x-x--|
D|---5-5--x-x--1-1--x-x--3-3--x-x--3--3--x-x--|
A|---3-3--x-x--1-1--x-x--1-1--x-x--3--3--x-x--|
E|---x-x--x-x--x-x--x-x--x-x--x-x-(1)(1)-x-x--|
And I've been wrong, I've been down
Into the bottom of every bottle

e|---3-3--x-x--x-x--x-x--1-1--x-x--x--x--x-x--|
B|---3-3--x-x--x-x--x-x--1-1--x-x--x--x--x-x--|
G|---5-5--x-x--x-x--x-x--3-3--x-x--x--x--x-x--|
D|---5-5--x-x--1-1--x-x--3-3--x-x--3--3--x-x--|
A|---3-3--x-x--1-1--x-x--1-1--x-x--3--3--x-x--|
E|---x-x--x-x--x-x--x-x--x-x--x-x-(1)(1)-x-x--|
These five words in my head
Scream are we having fun yet?

e|---3-3--x-x--x-x--x-x--1-1--x-x--x--x--x-x--|
B|---3-3--x-x--x-x--x-x--1-1--x-x--x--x--x-x--|
G|---5-5--x-x--x-x--x-x--3-3--x-x--x--x--x-x--|
D|---5-5--x-x--1-1--x-x--3-3--x-x--3--3--x-x--|
A|---3-3--x-x--1-1--x-x--1-1--x-x--3--3--x-x--|
E|---x-x--x-x--x-x--x-x--x-x--x-x-(1)(1)-x-x--|
Yet, yet, yet no, no

e|---3-3--x-x--x-x--x-x--1-1--x-x--x--x--x-x--|
B|---3-3--x-x--x-x--x-x--1-1--x-x--x--x--x-x--|
G|---5-5--x-x--x-x--x-x--3-3--x-x--x--x--x-x--|
D|---5-5--x-x--1-1--x-x--3-3--x-x--3--3--x-x--|
A|---3-3--x-x--1-1--x-x--1-1--x-x--3--3--x-x--|
E|---x-x--x-x--x-x--x-x--x-x--x-x-(1)(1)-x-x--|
Yet, yet, yet no, no


Verse 2:

e|---3-3--x-x--3-3--x-x--1-1--x-x--1-1--x-x---|
B|---3-3--x-x--3-3--x-x--1-1--x-x--1-1--x-x---|
G|---5-5--x-x--5-5--x-x--3-3--x-x--3-3--x-x---|
D|---5-5--x-x--5-5--x-x--3-3--x-x--3-3--x-x---|
A|---3-3--x-x--3-3--x-x--1-1--x-x--1-1--x-x---|
E|---x-x--x-x--3-3--x-x--x-x--x-x--1-1--x-x---|
It's not like you didn't know that
I said I love you and I swear I still do

e|---3-3--x-x--3-3--x-x--1-1--x-x--1-1--x-x---|
B|---3-3--x-x--3-3--x-x--1-1--x-x--1-1--x-x---|
G|---5-5--x-x--5-5--x-x--3-3--x-x--3-3--x-x---|
D|---5-5--x-x--5-5--x-x--3-3--x-x--3-3--x-x---|
A|---3-3--x-x--3-3--x-x--1-1--x-x--1-1--x-x---|
E|---x-x--x-x--3-3--x-x--x-x--x-x--1-1--x-x---|
And it must have been so bad
Cause living with him must have damn near killed you

e|---3-3--x-x--3-3--x-x--1-1--x-x--1-1--x-x---|
B|---3-3--x-x--3-3--x-x--1-1--x-x--1-1--x-x---|
G|---5-5--x-x--5-5--x-x--3-3--x-x--3-3--x-x---|
D|---5-5--x-x--5-5--x-x--3-3--x-x--3-3--x-x---|
A|---3-3--x-x--3-3--x-x--1-1--x-x--1-1--x-x---|
E|---x-x--x-x--3-3--x-x--x-x--x-x--1-1--x-x---|
And this is how you remind me
Of what I really am

e|---3-3--x-x--3-3--x-x--1-1--x-x--1-1--x-x---|
B|---3-3--x-x--3-3--x-x--1-1--x-x--1-1--x-x---|
G|---5-5--x-x--5-5--x-x--3-3--x-x--3-3--x-x---|
D|---5-5--x-x--5-5--x-x--3-3--x-x--3-3--x-x---|
A|---3-3--x-x--3-3--x-x--1-1--x-x--1-1--x-x---|
E|---x-x--x-x--3-3--x-x--x-x--x-x--1-1--x-x---|
This is how you remind me
Of what I really am


Main Chorus:

e|---3-3--x-x--x-x--x-x--1-1--x-x--x--x--x-x--|
B|---3-3--x-x--x-x--x-x--1-1--x-x--x--x--x-x--|
G|---5-5--x-x--x-x--x-x--3-3--x-x--x--x--x-x--|
D|---5-5--x-x--1-1--x-x--3-3--x-x--3--3--x-x--|
A|---3-3--x-x--1-1--x-x--1-1--x-x--3--3--x-x--|
E|---x-x--x-x--x-x--x-x--x-x--x-x-(1)(1)-x-x--|
It's not like you to say sorry
I was waiting on a different story

e|---3-3--x-x--x-x--x-x--1-1--x-x--x--x--x-x--|
B|---3-3--x-x--x-x--x-x--1-1--x-x--x--x--x-x--|
G|---5-5--x-x--x-x--x-x--3-3--x-x--x--x--x-x--|
D|---5-5--x-x--1-1--x-x--3-3--x-x--3--3--x-x--|
A|---3-3--x-x--1-1--x-x--1-1--x-x--3--3--x-x--|
E|---x-x--x-x--x-x--x-x--x-x--x-x-(1)(1)-x-x--|
This time I'm mistaken
For handing you a heart worth breaking
[ Tab from: http://www.guitaretab.com/n/nickelback/24583.html ]
       P.M.     P.M.
e|---3-3--x-x--x-x--x-x--1-1--x-x--x--x--x-x--|
B|---3-3--x-x--x-x--x-x--1-1--x-x--x--x--x-x--|
G|---5-5--x-x--x-x--x-x--3-3--x-x--x--x--x-x--|
D|---5-5--x-x--1-1--x-x--3-3--x-x--3--3--x-x--|
A|---3-3--x-x--1-1--x-x--1-1--x-x--3--3--x-x--|
E|---x-x--x-x--x-x--x-x--x-x--x-x-(1)(1)-x-x--|
And I've been wrong, I've been down
Into the bottom of every bottle

e|---3-3--x-x--x-x--x-x--1-1--x-x--x--x--x-x--|
B|---3-3--x-x--x-x--x-x--1-1--x-x--x--x--x-x--|
G|---5-5--x-x--x-x--x-x--3-3--x-x--x--x--x-x--|
D|---5-5--x-x--1-1--x-x--3-3--x-x--3--3--x-x--|
A|---3-3--x-x--1-1--x-x--1-1--x-x--3--3--x-x--|
E|---x-x--x-x--x-x--x-x--x-x--x-x-(1)(1)-x-x--|
These five words in my head
Scream are we having fun yet?

e|---3-3--x-x--x-x--x-x--1-1--x-x--x--x--x-x--|
B|---3-3--x-x--x-x--x-x--1-1--x-x--x--x--x-x--|
G|---5-5--x-x--x-x--x-x--3-3--x-x--x--x--x-x--|
D|---5-5--x-x--1-1--x-x--3-3--x-x--3--3--x-x--|
A|---3-3--x-x--1-1--x-x--1-1--x-x--3--3--x-x--|
E|---x-x--x-x--x-x--x-x--x-x--x-x-(1)(1)-x-x--|
Yet, yet, yet no, no

e|---3-3--x-x--x-x--x-x--1-1--x-x--x--x--x-x--|
B|---3-3--x-x--x-x--x-x--1-1--x-x--x--x--x-x--|
G|---5-5--x-x--x-x--x-x--3-3--x-x--x--x--x-x--|
D|---5-5--x-x--1-1--x-x--3-3--x-x--3--3--x-x--|
A|---3-3--x-x--1-1--x-x--1-1--x-x--3--3--x-x--|
E|---x-x--x-x--x-x--x-x--x-x--x-x-(1)(1)-x-x--|
Yet, yet, yet no, no

e|---3-3--x-x--x-x--x-x--1-1--x-x--x--x--x-x--|
B|---3-3--x-x--x-x--x-x--1-1--x-x--x--x--x-x--|
G|---5-5--x-x--x-x--x-x--3-3--x-x--x--x--x-x--|
D|---5-5--x-x--1-1--x-x--3-3--x-x--3--3--x-x--|
A|---3-3--x-x--1-1--x-x--1-1--x-x--3--3--x-x--|
E|---x-x--x-x--x-x--x-x--x-x--x-x-(1)(1)-x-x--|
Yet, yet, yet no, no

e|---3-3--x-x--x-x--x-x--1-1--x-x--x--x--x-x--|
B|---3-3--x-x--x-x--x-x--1-1--x-x--x--x--x-x--|
G|---5-5--x-x--x-x--x-x--3-3--x-x--x--x--x-x--|
D|---5-5--x-x--1-1--x-x--3-3--x-x--3--3--x-x--|
A|---3-3--x-x--1-1--x-x--1-1--x-x--3--3--x-x--|
E|---x-x--x-x--x-x--x-x--x-x--x-x-(1)(1)-x-x--|
Yet, yet, yet no, no

e|--3---|
B|--3---|
G|--5---|
D|--5---|
A|--3---|
E|--x---   let ring...


Verse 3:

e|---3-3--x-x--3-3--x-x--1-1--x-x--1-1--x-x---|
B|---3-3--x-x--3-3--x-x--1-1--x-x--1-1--x-x---|
G|---5-5--x-x--5-5--x-x--3-3--x-x--3-3--x-x---|
D|---5-5--x-x--5-5--x-x--3-3--x-x--3-3--x-x---|
A|---3-3--x-x--3-3--x-x--1-1--x-x--1-1--x-x---|
E|---x-x--x-x--3-3--x-x--x-x--x-x--1-1--x-x---|


     *   *   *   * let ring...
e|---3---3---1---1----|
B|---3---3---1---1----|
G|---5---5---3---3----|
D|---5---5---3---3----|
A|---3---3---1---1----|
E|---x---3---x---1----|
Never made it as a wise man
I couldn't cut it as a poor man stealing


e|---3---3---1----|
B|---3---3---1----|
G|---5---5---3----|
D|---5---5---3----|
A|---3---3---1----|
E|---x---3---x----|   let ring...
And this is how you remind me


e|---3---3---1----|
B|---3---3---1----|
G|---5---5---3----|
D|---5---5---3----|
A|---3---3---1----|
E|---x---3---x----|   let ring...
This is how you remind me

e|---3-3--x-x--3-3--x-x--1-1--x-x--1-1--x-x---|
B|---3-3--x-x--3-3--x-x--1-1--x-x--1-1--x-x---|
G|---5-5--x-x--5-5--x-x--3-3--x-x--3-3--x-x---|
D|---5-5--x-x--5-5--x-x--3-3--x-x--3-3--x-x---|
A|---3-3--x-x--3-3--x-x--1-1--x-x--1-1--x-x---|
E|---x-x--x-x--3-3--x-x--x-x--x-x--1-1--x-x---|
And this is how you remind me
Of what I really am

e|---3-3--x-x--3-3--x-x--1-1--x-x--1-1--x-x---|
B|---3-3--x-x--3-3--x-x--1-1--x-x--1-1--x-x---|
G|---5-5--x-x--5-5--x-x--3-3--x-x--3-3--x-x---|
D|---5-5--x-x--5-5--x-x--3-3--x-x--3-3--x-x---|
A|---3-3--x-x--3-3--x-x--1-1--x-x--1-1--x-x---|
E|---x-x--x-x--3-3--x-x--x-x--x-x--1-1--x-x---|
This is how you remind me
Of what I really am


Main Chorus:

e|---3-3--x-x--x-x--x-x--1-1--x-x--x--x--x-x--|
B|---3-3--x-x--x-x--x-x--1-1--x-x--x--x--x-x--|
G|---5-5--x-x--x-x--x-x--3-3--x-x--x--x--x-x--|
D|---5-5--x-x--1-1--x-x--3-3--x-x--3--3--x-x--|
A|---3-3--x-x--1-1--x-x--1-1--x-x--3--3--x-x--|
E|---x-x--x-x--x-x--x-x--x-x--x-x-(1)(1)-x-x--|
It's not like you to say sorry
I was waiting on a different story

e|---3-3--x-x--x-x--x-x--1-1--x-x--x--x--x-x--|
B|---3-3--x-x--x-x--x-x--1-1--x-x--x--x--x-x--|
G|---5-5--x-x--x-x--x-x--3-3--x-x--x--x--x-x--|
D|---5-5--x-x--1-1--x-x--3-3--x-x--3--3--x-x--|
A|---3-3--x-x--1-1--x-x--1-1--x-x--3--3--x-x--|
E|---x-x--x-x--x-x--x-x--x-x--x-x-(1)(1)-x-x--|
This time I'm mistaken
For handing you a heart worth breaking

       P.M.     P.M.
e|---3-3--x-x--x-x--x-x--1-1--x-x--x--x--x-x--|
B|---3-3--x-x--x-x--x-x--1-1--x-x--x--x--x-x--|
G|---5-5--x-x--x-x--x-x--3-3--x-x--x--x--x-x--|
D|---5-5--x-x--1-1--x-x--3-3--x-x--3--3--x-x--|
A|---3-3--x-x--1-1--x-x--1-1--x-x--3--3--x-x--|
E|---x-x--x-x--x-x--x-x--x-x--x-x-(1)(1)-x-x--|
And I've been wrong, I've been down
Into the bottom of every bottle

e|---3-3--x-x--x-x--x-x--1-1--x-x--x--x--x-x--|
B|---3-3--x-x--x-x--x-x--1-1--x-x--x--x--x-x--|
G|---5-5--x-x--x-x--x-x--3-3--x-x--x--x--x-x--|
D|---5-5--x-x--1-1--x-x--3-3--x-x--3--3--x-x--|
A|---3-3--x-x--1-1--x-x--1-1--x-x--3--3--x-x--|
E|---x-x--x-x--x-x--x-x--x-x--x-x-(1)(1)-x-x--|
These five words in my head
Scream are we having fun yet?


e|---3-3--x-x--x-x--x-x--1-1--x-x--x--x--x-x--|
B|---3-3--x-x--x-x--x-x--1-1--x-x--x--x--x-x--|
G|---5-5--x-x--x-x--x-x--3-3--x-x--x--x--x-x--|
D|---5-5--x-x--1-1--x-x--3-3--x-x--3--3--x-x--|
A|---3-3--x-x--1-1--x-x--1-1--x-x--3--3--x-x--|
E|---x-x--x-x--x-x--x-x--x-x--x-x-(1)(1)-x-x--|
Yet, yet
Are we having fun yet?

e|---3-3--x-x--x-x--x-x--1-1--x-x--x--x--x-x--|
B|---3-3--x-x--x-x--x-x--1-1--x-x--x--x--x-x--|
G|---5-5--x-x--x-x--x-x--3-3--x-x--x--x--x-x--|
D|---5-5--x-x--1-1--x-x--3-3--x-x--3--3--x-x--|
A|---3-3--x-x--1-1--x-x--1-1--x-x--3--3--x-x--|
E|---x-x--x-x--x-x--x-x--x-x--x-x-(1)(1)-x-x--|
Yet, yet
Are we having fun yet?

e|---3-3--x-x--x-x--x-x--1-1--x-x--x--x--x-x--|
B|---3-3--x-x--x-x--x-x--1-1--x-x--x--x--x-x--|
G|---5-5--x-x--x-x--x-x--3-3--x-x--x--x--x-x--|
D|---5-5--x-x--1-1--x-x--3-3--x-x--3--3--x-x--|
A|---3-3--x-x--1-1--x-x--1-1--x-x--3--3--x-x--|
E|---x-x--x-x--x-x--x-x--x-x--x-x-(1)(1)-x-x--|
Yet, yet
Are we having fun yet?
                       *ring
e|---3-3--x-x--x-x--x-x--1-----|
B|---3-3--x-x--x-x--x-x--1-----|
G|---5-5--x-x--x-x--x-x--3-----|
D|---5-5--x-x--1-1--x-x--3-----|
A|---3-3--x-x--1-1--x-x--1-----|
E|---x-x--x-x--x-x--x-x--x-----|
Yet, yet, yet, no, no

and that's the song. enjoy playing!:)
Related for How You Remind Me tab
Advertisement will be closed in 10 seconds