Song name
# A B C D E F G H I J K L M N O P Q R S T U V W X Y Z

Nicole Scherzinger - Poison tab

Drop A tuning, kids. Just thought id tab this for the lol

e -----------------------------|
B -----------------------------|
G -----------------------------|
D -----------------------7--10-|
A -----------------------------|
A -0-0-0-0-0-0-3-5-0-0-0-------|

Chorus

something like

e ------------------------------------------------------------------------||
B ------------------------------------------------------------------------||
G -7-7-7-7-7-7-9-10-10-10-10-10-10-12-14-14-14-14-14-14-14-14-17-17-17-17-||
D -7-7-7-7-7-7-9-10-10-10-10-10-10-12-14-14-14-14-14-14-14-14-17-17-17-17-||
A -5-5-5-5-5-5-7-8--8--8--8--8--8--10-12-12-12-12-12-12-12-12-15-15-15-15-||
A -5-5-5-5-5-5-7-8--8--8--8--8--8--10-12-12-12-12-12-12-12-12-15-15-15-15-||

i cant hear any guitar in the chorus so i just guessed the above.

Hope you enjoy =D
Tap to rate this tab
 
# A B C D E F G H I J K L M N O P Q R S T U V W X Y Z