Song name
# A B C D E F G H I J K L M N O P Q R S T U V W X Y Z

Nicolo Paganini - Sonate Concertante tab

1.    |  .  |  .   |  .  |  .     |  .  |  .  |  .  |  .     
E--|--5--------2p0-------------|--------------------2----p0-|
B--|--2------------4--5--3--0--|----------------------------|
G--|--2------------------------|--2-------------------------|
D--|--2------------------------|----------------------------|
A--|--0------------------------|--0-------------------------|
E--|---------------0-----------|----------------------------|



3.    |  .  |  .   |  .  |  .     |  .  |  .  |  .  |  .     
E--|---------------------------|----------------------------|
B--|--0------------2--p--0-----|--0-----------------0----2--|
G--|---------------------------|----------------------------|
D--|--2------------1-----------|--2-------------------------|
A--|---------------------------|----------------------------|
E--|---------------------------|----------------------------|



5.    |  .  |  .   |  .  |  .     |  .  |  .  |  .  |  .     
E--|------------------2--0-----|-----------------5--4--2--|
B--|--5-----3---------------3--|--1-----2-----------------|
G--|---------------------------|--------------------------|
D--|---------------------------|--------------------------|
A--|---------------------------|--0-----------------------|
E--|--0------------------------|--------------------------|



7.    |  .  |  .   |  .  |  .      |  .  |  .   |  .  |  .     
E--|--0-------------------------|--2--------4p2-0-----------|
B--|-----4--2--0---------5----4-|---------------------------|
G--|---------------3--4---------|---------------------------|
D--|----------------------------|---------------------------|
A--|--2-------------------------|---------------------------|
E--|----------------------------|--0------------------------|



9.    |  .  |  .   |  .  |  .     |  .  |  .  |  .  |  .     
E--|--0------------0-----------|--0-----------------------|
B--|--2------------0-----------|--2-----------------------|
G--|--2------------1-----------|--2-----------------------|
D--|---------------------------|--------------------------|
A--|--0------------------------|--0-----------------------|
E--|---------------4-----------|--------------------------|



11.   |  .  |  .   |  .  |  .     |  .  |  .  |  .  |  .     
E--|---------------------------|--------------------------|
B--|--0------------------------|--------------------------|
G--|---------------2--p--1-----|--1-----------------------|
D--|--2------------1-----------|--2-----------------------|
A--|---------------------------|--------------------------|
E--|---------------------------|--------------------------|




13.   |  .  |  .   |  .  |  .     |  .  |  .  |  .  |  .     
E--|---------------------------|--------------------------|
B--|--3------------2-----------|--0-----------------------|
G--|--2------------1-----------|--------------2-----------|
D--|--4------------2-----------|--4-----------2-----------|
A--|---------------------------|--5-----------4-----------|
E--|---------------------------|--------------------------|




15.   |  .  |  .   |  .  |  .     |  .   |  .  |  .  |  .     
E--|--2------------0-----0-----|---------0--5--4--5--7--9--|
B--|--0------------2-----0-----|-------2-------------------|
G--|--2------------2-----1-----|-----2---------------------|
D--|--0------------2-----------|---------------------------|
A--|---------------------------|--0------------0-----0-----|
E--|---------------------0-----|---------------------------|



17.   |  .   |  .    |  .  |  .     |  .  |  .  |  .  |  .     
E--|-----10--9--10-s-7--6--7--8--|-----9--7--5--4--5--0--1--|
B--|-----------------------------|--------------------------|
G--|-----------------------------|--------------------------|
D--|-----------------------------|--------------------------|
A--|-----------------------------|--0-----------0-----0-----|
E--|--0--------------0-----0-----|--------------------------|



19.   |  .  |  .  |  .  |  .     |  .  |  .  |  .  |  .     
E--|-----2--0-----------------|--0-----------0-----0-----|
B--|-----------3--2--0--------|--2-----------2-----2-----|
G--|--------------------2--1--|--2-----------2-----2-----|
D--|--0-----------------------|--------------------------|
A--|--------------------------|--0-----------0-----0-----|
E--|--------------0-----------|--------------------------|



21.   |  .  |  .  |  .  |  .     |  .  |  .  |  .  |  .     
E--|--0-----------0-----0-----|--0-----------0-----0-----|
B--|--0-----------0-----0-----|--2-----------2-----2-----|
G--|--1-----------1-----1-----|--2-----------2-----2-----|
D--|--------------------------|--------------------------|
A--|--------------------------|--0-----------4-----4-----|
E--|--4-----------4-----4-----|--------------------------|


23.   |  .  |  .  |  .  |  .     |  .  |  .  |  .  |  .     
E--|--2-----------------------|--------------------------|
B--|--3-----------------------|--------2--0--------------|
G--|--2-----------------------|-----2--------2--1--------|
D--|--0-----------2--0--------|--------------------4--2--|
A--|--------------------4--2--|--------------------------|
E--|--------------------------|--4-----------------------|


25.   |  .  |  .  |  .  |  .     |  .  |  .  |  .  |  .     
E--|--------------------------|--------------------------|
B--|--------------------------|--------------------------|
G--|--------------------------|--------1-----------------|
D--|--1--2--4--2--1--------1--|--2--4-----4--2--1--------|
A--|-----------------2--4-----|--------------------4--2--|
E--|--------------------------|--------------------------|



27.   |  .  |  .  |  .  |  .     |  .  |  .  |  .  |  .     
E--|--------------------------|--------------------------|
B--|--------------------------|-----0-----0-----0-----0--|
G--|--------------------------|--------4-----3-----2-----|
D--|--------------------------|--------------------------|
A--|--1--2--4--2--1--------1--|--2-----------------------|
E--|-----------------2--4-----|--------------------------|



29.   |  .  |  .  |  .  |  .     |  .  |  .  |  .  |  .     
E--|--------------------------|--------------------------|
B--|-----0-----0-----0-----0--|-----0-----0--2--0--4--0--|
G--|--1-----------------------|--------4-----------------|
D--|--------2-----3-----------|--------------------------|
A--|--------------------4-----|--2-----------------------|
E--|--------------------------|--------------------------|


31.   |  .  |  .  |  .  |  .     |  .  |  .  |  .  |  .     
E--|--0-----1-----3-----6-----|--7-----8--6--7-----8--6--|
B--|-----0-----0-----0-----0--|-----0-----------0--------|
G--|--------------------------|--------------------------|
D--|--------------------------|--------------------------|
A--|--------------------------|--------------------------|
E--|--------------------------|--------------------------|


33.   |  .  |  .  |  .  |  .     |  .  |  .  |  .  |  .     
E--|--7-----9--6--7--5--4-----|--------0-----------0-----|
B--|-----0-----------------7--|--------0-----------0-----|
G--|--------------------------|--------1-----------1-----|
D--|--------------------------|--------------2-----------|
A--|--------------------------|--------------------------|
E--|--------------------------|--0-----------------------|


35.   |  .  |  .  |  .  |  .     |  .  |  .  |  .  |  .     
E--|--------2-----------2-----|--------2-----------2-----|
B--|--------0-----------0-----|--------0-----------0-----|
G--|--------2-----------2-----|--------2-----------2-----|
D--|--------------1-----------|--------------1-----------|
A--|--------------------------|--2-----------------------|
E--|--2-----------------------|--------------------------|


37.   |  .  |  .  |  .  |  .     |  .  |  .  |  .  |  .     
E--|--------0-----------0-----|--------------------------|
B--|--------0-----------0-----|--------1-----1-----1-----|
G--|--------1-----------1-----|--------1-----1-----1-----|
D--|--------------2-----------|--------1-----1-----1-----|
A--|--------------------------|--3-----------------------|
E--|--0-----------------------|--------------------------|


39.   |  .  |  .  |  .  |  .     |  .  |  .  |  .  |  .     
E--|--------------------------|--------2-----------2-----|
B--|--------------------2-----|--------4-----------2-----|
G--|--------------1-----------|--------4-----------3-----|
D--|--------2-----------------|--4-----------------------|
A--|--4-----------------------|--------------------------|
E--|--------------------------|--------------2-----------|


41.   |  .  |  .  |  .  |  .     |  .  |  .  |  .  |  .     
E--|--------------------------|--------------------------|
B--|--------------------------|-----------------0-----5--|
G--|--------3-----4-----------|-----------1--------------|
D--|--------------------------|-----2--------------------|
A--|--2--------------0--------|--------------2-----------|
E--|--------------------4--2--|--0-----------------------|


43.   |  .  |  .  |  .  |  .     |  .  |  .  |  .  |  .     
E--|--------------------------|--------------------------|
B--|--5-----s-----4-----------|-----------------4--s--7--|
G--|--------------------------|-----------2--------------|
D--|--2-----s-----1-----------|-----4--------1-----------|
A--|--------------------------|--------------------------|
E--|--------------------------|--2-----------------------|



45.   |  .  |  .  |  .  |  .     |  .  |  .  |  .  |  .     
E--|--------------------------|--4--s-----5--4--2--0-----|
B--|--7-----s-----5-----------|-----------------------4--|
G--|--------------------------|--1-----------------------|
D--|--4-----s-----2-----------|--------------------------|
A--|--------------------------|--------------------------|
E--|--------------------------|--------------------------|


47.   |  .  |  .  |  .  |  .     |  .  |  .  |  .  |  .     
E--|--------------------0--1--|--2--------4--2--0--------|
B--|--2-----------2--4--------|--------------------4--2--|
G--|-----------1--------------|--------------------------|
D--|--------2-----------------|--4-----------------------|
A--|--4-----------------------|--------------------------|
E--|--------------------------|--------------------------|


49.   |  .  |  .  |  .  |  .     |  .  |  .  |  .  |  .     
E--|-----------------0--2--4--|--5--4-4p2-0--------------|
B--|--0-----0-h2--4-----------|--------------4--2-2p0----|
G--|--------------------------|-----------------------2--|
D--|--------------------------|--------------------------|
A--|--2-----------------------|--------------------------|
E--|--------------------------|--------------------------|


51.   |  .  |  .  |  .  |  .     |  .  |  .  |  .  |  .     
E--|-----0-----0-----5--4--2--|--0----------4t2.......0h2-|
B--|--------4-----2-----------|---------------------------|
G--|--1-----------------------|---------------------------|
D--|--------------------------|---------------------------|
A--|--------------0-----------|--2------------------------|
E--|--0-----------------------|---------------------------|


53.   |  .  |  .  |  .  |  .     |  .  |  .  |  .  |  .     
E--|--0-----------------------|--------------------------|
B--|-----0--------------------|--------7--5--4--5--7--4--|
G--|--------1--1--2--1--------|--------------------------|
D--|--------------------4--2--|--1-----------------------|
A--|--------------------------|--------------------------|
E--|--0-----------------------|--------------------------|


55.   |  .  |  .  |  .  |  .     |  .  |  .  |  .  |  .     
E--|--------------------------|--------------------------|
B--|--5--0--------------------|--------7--5--4--5--7--4--|
G--|--------1--1--2--1--------|--------------------------|
D--|--------------------4--2--|--1-----------------------|
A--|--------------------------|--------------------------|
E--|--0-----------------------|--------------------------|


57.   |  .  |  .  |  .  |  .     |  .  |  .  |  .  |  .     
E--|--------------------------|--------------------------|
B--|--5--0--------------------|--------------------------|
G--|--------------1--2--4--2--|--1-----------------------|
D--|--------2--4--------------|-----4--2--0--------------|
A--|--------------------------|--------------4--2--0-----|
E--|--0-----------------------|-----------------------4--|


59.   |  .  |  .  |  .  |  .     |  .  |  .  |  .  |  .     
E--|--------0-----------0-----|--0-----------0-----------|
B--|--------2-----------2-----|--0-----------------4-----|
G--|--------2-----------0-----|--1-----------------------|
D--|--------------------------|--------------------------|
A--|--0-----0-----------1-----|--2-----------2-----2-----|
E--|--------------------------|--------------------------|


61.   |  .  |  .  |  .  |  .     |  .  |  .  |  .  |  .     
E--|--0--------------------4--|--5-----------------------|
B--|--0--------5--4--5--7-----|-----0--------------------|
G--|--1-----4-----------------|--------2--1-----1--2-----|
D--|--------------------------|--------------4--------4--|
A--|--------------------------|--------------------------|
E--|--0-----------------------|--------------------------|


63.   |  .  |  .  |  .  |   .     |  .  |  .  |  .  |  .     
E--|--------4--5--7--9--10--9--|--7--5--4--2--0-----------|
B--|---------------------------|-----------------3--2--0--|
G--|--1------------------------|--------------------------|
D--|---------------------------|--------------------------|
A--|---------------------------|--------------------------|
E--|--0------------------------|--------------------------|


65.   |  .  |  .  |  .  |  .     |  .  |  .  |  .  |  .     
E--|--------------------------|--0-----5--4-4p2-0--------|
B--|--2-----------------2-----|-----2--------------4--2--|
G--|--------------2--------2--|--------------------------|
D--|-----------2-----2--------|--------------------------|
A--|-----0--4-----------------|--------------------------|
E--|--------------------------|--------------------------|



67.   |  .  |  .  |  .  |  .     |  .  |  .  |  .  |  .     
E--|-----------4--7--6--5--4--|-4t2.........4t2.......0h2-|
B--|--0-----5-----------------|---------------------------|
G--|--------------------------|---------------------------|
D--|--------------------------|---------------------------|
A--|--2-----------------------|---------------------------|
E--|--------------------------|---------------------------|



69.   |  .  |  .  |  .  |  .     |  .  |  .  |  .  |  .     
E--|--0-----------------------|--------------------------|
B--|-----0-----0-----0-----0--|-----0-----0-----0-----0--|
G--|--------1-----------4-----|--3-----2-----1-----------|
D--|--------------2-----------|--------------------1-----|
A--|--------------------------|--------------------------|
E--|--0-----------------------|--------------------------|



71.   |  .  |  .  |  .  |  .     |  .  |  .  |  .  |  .     
E--|--------------0--------0--|--0-----------2-----------|
B--|-----------------0--------|--2-----------0-----------|
G--|-----1-----1--------------|--2-----------2-----------|
D--|--2-----------------------|--------------------------|
A--|--------4-----------4-----|--0-----------2-----------|
E--|--------------------------|--------------------------|



73.   |  .  |  .  |  .  |  .     |  .  |  .  |  .  |  .     
E--|--0-----------------------|--------------------------|
B--|--0--------------------0--|-----2-----4--s--5-----2--|
G--|--1-----------------------|--------------------------|
D--|--------------------------|--------1--s--2-----------|
A--|--------------------2-----|--4-----------------4-----|
E--|--0-----------------------|--------------------------|



75.   |  .  |  .  |  .  |  .     |  .  |  .  |  .  |  .     
E--|--------------------2--0--|--------------------------|
B--|-----4--------7-----------|--2-----------4-----------|
G--|--------------------------|--------------------------|
D--|--------------------------|--------------------------|
A--|--6-----------9-----------|--4-----------6-----------|
E--|--------------------------|--------------------------|



77.   |  .  |  .  |  .  |  .     |  .  |  .  |  .  |  .     
E--|--------------2--------4--|--0-----------2--------4--|
B--|--5-----------0-----------|--0-----------0-----------|
G--|--------------2-----------|--1-----------2-----------|
D--|--------------1-----------|--2-----------1-----------|
A--|--7-----------------------|--------------------------|
E--|--------------------------|--------------------------|



                              ---------------------------|
                                     1.                  |
                                                         |
79.   |  .  |  .  |  .  |  .     |  .  |  .  |  .  |  .     
E--|--0-----2-----0-----2-----|--0-----0-----0-----------||
B--|--0-----0-----0-----0-----|--0-----0-----0-----------||
G--|--1-----2-----1-----2-----|--1-----1-----1-----------||
D--|--2-----1-----2-----1-----|--2-----2-----2-----------||
A--|--------------------------|--------------------------||
E--|--------------------------|--------------------------||

Repeat first 79 bars and then go to 2:


   |--------------------------
   |   2.
   |
81.   |  .  |  .  |  .  |  .     |  .  |  .  |  .  |  .     
E--|--0-----2-----0-----2-----|--0-----1-----0-----1-----|
B--|--0-----0-----0-----0-----|--0-----0-----1-----0-----|
G--|--1-----2-----1-----2-----|--0-----0-----0-----0-----|
D--|--2-----1-----2-----1-----|--2-----0-----2-----0-----|
A--|--------------------------|--------------3-----------|
E--|--------------------------|--------------------3-----|



83.   |  .  |  .  |  .  |  .     |  .  |  .  |  .  |  .     
E--|-----0-----0-----0-----0--|-----1-----1-----1-----1--|
B--|-----1-----1-----1-----1--|-----0-----0-----0-----0--|
G--|--------0-----------0-----|--------0-----------0-----|
D--|--------------2-----------|--------------0-----------|
A--|--3-----------------------|--2-----------------------|
E--|--------------------------|--------------------------|



85.   |  .  |  .  |  .  |  .     |  .  |  .  |  .  |  .     
E--|--1-----------------------|--0-----------------------|
B--|--0-----------------------|-----------------------0--|
G--|--0-----------------------|-----0-----0-----0--2-----|
D--|--0-----------------------|--------2-----------------|
A--|--2-----------------------|--3-----------3-----------|
E--|--3-----------------------|--------------------------|



87.   |  .  |  .  |  .   |  .     |  .  |  .  |  .  |  .     
E--|---------------------------|--------------------5--3--|
B--|--3-----1--------3p1-0--1--|--2-----3-----------------|
G--|-----0-----0---------------|-----0-----0--------------|
D--|--------2------------------|--------0-----------------|
A--|--3-----------3------------|--2-----------2-----------|
E--|---------------------------|--------------------------|



89.   |  .  |  .  |  .  |  .     |  .  |  .  |  .  |  .     
E--|--2-h3--5--3--2-h3--1-----|--------------------------|
B--|-----------------------3--|--1-----------------------|
G--|--------------------------|--------------------------|
D--|--0-----------------------|--------------------------|
A--|--------------------------|--3-----------------------|
E--|--------------------------|--------------------------|



91.   |  .  |  .  |  .  |  .     |  .  |  .  |  .  |  .     
E--|-----0-----0-----0-----0--|-----0-----0-----0-----0--|
B--|-----1-----1-----1-----1--|-----0-----0-----0-----0--|
G--|--------2-----------2-----|--------1-----------1-----|
D--|--------------------------|--------------------------|
A--|--0-----------0-----------|--------------------------|
E--|--------------------------|--4-----------4-----------|



93.   |  .  |  .  |  .  |  .     |  .  |  .  |  .  |  .     
E--|--0-----------------------|-----------------0--0--0--|
B--|--0-----------------------|--1-----------------------|
G--|--1-----------------------|-----2-----2--------------|
D--|--2-----------------------|--------2-----------------|
A--|--2-----------------------|--0-----------0-----------|
E--|--0-----------------------|--------------------------|



95.   |  .  |  .  |  .   |  .     |  .  |  .  |  .  |  .     
E--|--1-----0------------------|--------------------3--1--|
B--|-----------------3p1-0--1--|--1-----------------------|
G--|-----2-----2---------------|--------3-----------------|
D--|--------2------------------|-----2-----2--------------|
A--|--0-----------0------------|--------3-----------------|
E--|---------------------------|--0-----------0-----------|



97.   |  .  |  .  |  .  |  .     |  .  |  .  |  .  |  .     
E--|--0-h1--3--1--------------|--------------------------|
B--|--------------5-p3--1-----|--------------------------|
G--|-----------------------3--|--2-----------------------|
D--|--------------------------|-----3-----3--------------|
A--|--------------------------|--------0-----------------|
E--|--0-----------------------|--1-----------1-----------|



99.   |  .  |  .  |  .  |  .     |  .  |  .  |  .  |  .     
E--|-----0-----0--0-----------|-----1-----1--1-----------|
B--|-----2-----2--2-----------|-----3-----3--3-----------|
G--|--------2-----------------|--------2-----------------|
D--|--------------------------|--0-----------0-----------|
A--|--4-----------4-----------|--------------------------|
E--|--------------------------|--------------------------|



101.  |  .  |  .  |  .  |  .     |  .  |  .  |  .  |  .     
E--|-----1-----1--1-----------|-----0-----0--0-----------|
B--|-----3-----3--3-----------|-----1-----1--1-----------|
G--|--------0-----------------|--------0-----------------|
D--|--------------------------|--------------------------|
A--|--2-----------2-----------|--3-----------3-----------|
E--|--------------------------|--------------------------|



103.  |  .  |  .  |  .  |  .     |  .  |  .  |  .  |  .     
E--|--1-----------0-----------|--1-----------0-----------|
B--|--1-----------1-----------|--0-----------1-----------|
G--|--2-----------0-----------|--0-----------0-----------|
D--|--3-----------2-----------|--0-----------------------|
A--|--------------------------|--------------3-----------|
E--|--------------------------|--------------------------|



105.  |  .  |  .  |  .  |  .     |  .  |  .  |  .  |  .     
E--|--------------------------|-----------------3--3--3--|
B--|--1-----------1-----------|--0-----------------------|
G--|--2-----------2-----------|--0-----------------------|
D--|--3-----------4-----------|-----0-----0--------------|
A--|--------------------------|--------2-----------------|
E--|--------------------------|--------------3-----------|



107.  |  .  |  .  |  .  |  .     |  .  |  .  |  .  |  .     
E--|--2-----5-----------------|-----------------3--3--3--|
B--|-----------------4--3-----|--------3-----------------|
G--|--0--------------------5--|--4-----------------------|
D--|--------------------------|--------------------------|
A--|--------------------------|--------------------------|
E--|--------------------------|--3-----------------------|



109.  |  .  |  .  |  .  |  .     |  .  |  .  |  .  |  .     
E--|--2-----5-----------------|--------------------0--1--|
B--|-----------------4--3--1--|--0--------0--1--3--------|
G--|--0-----------------------|-----0--2-----------------|
D--|--------------------------|--------------------------|
A--|--------------------------|--------------------------|
E--|--------------------------|--3-----------------------|


111.  |  .  |  .  |  .  |  .     |  .  |  .  |  .  |  .     
E--|--2--3--5--3--1--0--------|-----------------0--1--5--|
B--|--------------------3--1--|--------0--1--3-----------|
G--|--------------------------|--2-----------------------|
D--|--------------------------|--------------------------|
A--|--------------------------|--------------------------|
E--|--------------------------|--------------------------|


113.  |  .  |  .  |  .  |  .     |  .  |  .  |  .  |  .     
E--|--3--0--5--1--0-----------|--------0-----------------|
B--|--------------------3-----|--------1-----------------|
G--|--------------0-----0-----|--------0-----------------|
D--|--------------------------|--------------------------|
A--|--------------------------|--3-----------------------|
E--|--------------------------|--------------------------|


115.  |     |     |     |        |     |     |     |        
E--|------1-----1-----1-----1--|-------0------------------|
B--|----0-----0-----0-----0----|-------1------------------|
G--|---------------------------|-------0------------------|
D--|--3-----0------------------|--------------------------|
A--|--------------2------------|-3------------------------|
E--|--------------------3------|--------------------------|


117.  |     |     |     |        |     |     |     |        
E--|------1-----1-----1-----1--|-------0------------------|
B--|----0-----0-----0-----0----|-------1------------------|
G--|---------------------------|-------0------------------|
D--|--3-----0------------------|--------------------------|
A--|--------------2------------|-3------------------------|
E--|--------------------3------|--------------------------|



119.  |     |     |     |        |  .  |  .  |  .  |  .     
E--|------0-----0-----0-----0-|--------0-----------------|
B--|----0-----0-----0-----0---|--------1-----------------|
G--|--------------------------|--------2-----------------|
D--|--0-----------------------|--------------------------|
A--|--------2-----------------|--0-----------------------|
E--|--------------4-----0-----|--------------------------|


121.  |     |     |     |        |  .  |  .  |  .  |        
E--|------0-----0-----0-----0-|--------0---------------0-|
B--|----0-----0-----0-----0---|--------1-------------1---|
G--|--------------------------|--------2-----------2-----|
D--|--0-----------------------|--------------------------|
A--|--------2-----------------|--0-----------------------|
E--|--------------4-----0-----|--------------------------|


123.  |     |  .  |  .  |        |     |  .  |  .  |        
E--|--------1-----------------|--------0-----------------|
B--|------1-----------------1-|------1-----------------1-|
G--|----2-----------------2---|----2-----------------2---|
D--|--3-----------------3-----|--2-----------------2-----|
A--|--------------------------|--------------------------|
E--|--------------------------|--------------------------|


125.  |     |  .  |  .  |  .     |  .  |     |     |        
E--|--------------------------|------------0-----0-----0-|
B--|--------7-----------------|--0-------0-----1-----3---|
G--|------5-------------5-----|--1-----1-----2-----4-----|
D--|----7---------------7-----|--2-----------------------|
A--|--6-----------------6-----|--------------------------|
E--|--------------------------|--------------------------|


127.  |     |     |     |        |     |     |     |        
E--|------0-----0-----0-----0-|------0-----0-----0-----0-|
B--|----5-----5-----3-----1---|----0-----0-----1-----3---|
G--|--5-----5-----4-----2-----|--1-----------------------|
D--|--------------------------|--------------------------|
A--|--------------------------|--------------0-----2-----|
E--|--------------------------|--------4-----------------|


129.  |     |     |     |        |     |     |     |        
E--|------0-----0-----0-----0-|------0-------------------|
B--|----1-----1-----3-----1---|----0-------------------4-|
G--|--------------------------|----------------------5---|
D--|--------------------------|--------------------3-----|
A--|--3-----3-----2-----0-----|--------------------------|
E--|--------------------------|--4-----------------------|


131.  |     |     |     |        |     |     |     |        
E--|------0-------------------|------0-------------------|
B--|----0-------------------4-|----0-------------------4-|
G--|----------------------5---|----------------------5---|
D--|--------------------3-----|--------------------3-----|
A--|--------------------------|--------------------------|
E--|--0-----------------------|--0-----------------------|

                               CADENZA AD LIB:          FALSE END  
                                                        (BAR REST) 
133.  |     |     |     |        |  .  |  .  |  .  |  .     
E--|------0-----------0-------|--------------------------|---|
B--|----0-------4---0-------4-|--------------------------|---|
G--|----------5-----------5---|--------------------9-----|---|
D--|--------3-----------3-----|-----------2--6--9--------|---|
A--|--------------------------|--------------------------|---|
E--|--0-----------0-----------|--0--4--5-----------------|---|


136.  |  .  |  .  |  .  |  .     |  .  |  .  |  .  |  .     
E--|--------0-----------0-----|--------0-----------0-----|
B--|--------2-----------2-----|--------3-----------3-----|
G--|--------2-----------2-----|--------1-----------1-----|
D--|--------------------------|--------------2-----------|
A--|--0-----------4-----------|--2-----------------------|
E--|--------------------------|--------------------------|


138.   |  .  |  .  |  .  |  .     |  .  |  .  |  .  |  .     
E--|--------0-----------0-----|--------0-----------0-----|
B--|--------3-----------3-----|--------2-----------2-----|
G--|--------1-----------1-----|--------2-----------2-----|
D--|--------------------------|--------------2-----------|
A--|--------------2-----------|--0-----------------------|
E--|--0-----------------------|--------------------------|


140.  |  .  |  .  |  .  |  .     |  .  |  .  |  .  |  .     
E--|--------4-----4-----4-----|--------2-----------------|
B--|--------2-----2-----2-----|--------2-----------------|
G--|--------4-----4-----4-----|--------2-----------------|
D--|--3-----------------------|--------------4-----------|
A--|--------------------------|--------------------------|
E--|--------------------------|--2-----------------------|


142.  |  .  |  .  |  .  |  .     |  .  |  .  |  .  |  .     
E--|--------0-----------2-----|--------------------------|
B--|--------0-----------0-----|--------------------------|
G--|--------1-----------2-----|--------------------------|
D--|--------------------------|--------1--h--2--0--------|
A--|--2-----------2-----------|--------------------4--2--|
E--|--------------------------|--0-----------------------|


144.  |  .  |  .  |  .  |  .     |  .  |  .  |  .  |  .     
E--|-----------------0-----5--|--5-----s-----4-----------|
B--|-----------2--------------|--------------------------|
G--|-----2--------------------|--2-----s-----1-----------|
D--|--------------2-----------|--------------------------|
A--|--0-----------------------|--------------------------|
E--|--------------------------|--------------------------|


146.  |  .  |  .  |  .  |  .     |  .  |  .  |  .  |  .     
E--|-----------------4--s--7--|--7-----------5-----------|
B--|-----0-----3--------------|--------------------------|
G--|--------------1-----------|--4-----------2-----------|
D--|--------------------------|--------------------------|
A--|--2-----------------------|--------------------------|
E--|--------------------------|--------------------------|


148.  |  .  |  .  |  .  |  .     |  .  |  .  |  .  |  .     
E--|--9--------10-9--7--5--4--|--2-----------2--4--5--6--|
B--|--------------------------|-----------2--------------|
G--|--6-----------------------|--------2-----------------|
D--|--------------------------|--4-----------------------|
A--|--------------------------|--------------------------|
E--|--------------------------|--------------------------|


150.  |  .  |  .  |  .  |  .     |  .  |  .  |  .  |  .     
E--|--7--------9--7--5--4-----|--------0--2--4--5--7--9--|
B--|--0--------------------7--|--5-----------------------|
G--|--------------------------|--------------------------|
D--|--------------------------|--------------------------|
A--|--------------------------|--------------------------|
E--|--------------------------|--0-----------------------|


152.  |  .  |  .  |  .  |  .     |  .  |  .  |  .  |  .     
E--|-10--9--7--5-5p4-2-2p0----|-----5--4--5--2-----------|
B--|-----------------------3--|--2--------------3--2--0--|
G--|--------------------------|--------------------------|
D--|--------------------------|--------------0-----------|
A--|--------------------------|--0-----------------------|
E--|--------------------------|--------------------------|


154.  |  .  |  .  |  .  |  .     |  .  |  .  |  .  |  .     
E--|--------------------------|-----0--------------------|
B--|--2----------2t0.......2h4|--------2--2--3--2--0-----|
G--|--------------------------|--2--------------------2--|
D--|--2-----------------------|--------------------------|
A--|--------------------------|--0-----------------------|
E--|--------------0-----------|--------------------------|


156.  |  .  |  .  |  .  |  .     |  .  |  .  |  .  |  .     
E--|--------7--5--4--5--7--4--|--5--0--------------------|
B--|--------------------------|--------2--2--3--2--0-----|
G--|--1-----------------------|-----------------------2--|
D--|--------------------------|--------------------------|
A--|--------------------------|--0-----------------------|
E--|--0-----------------------|--------------------------|


158.  |  .  |  .  |  .  |  .     |  .  |  .  |  .  |  .     
E--|--------7--5--4--5--7--4--|--5--0--------------------|
B--|--------------------------|-----------0--2--3--5--3--|
G--|--1-----------------------|--------2-----------------|
D--|--------------------------|--------------------------|
A--|--------------------------|--0-----------------------|
E--|--0-----------------------|--------------------------|


160.  |  .  |  .  |  .  |  .     |  .  |  .  |  .  |  .     
E--|--------------------------|--------2-----------2-----|
B--|--2--0--------------------|--------3-----------1-----|
G--|--------2--0--------------|--------2-----------2-----|
D--|--------------4--2--0-----|--0-----------------1-----|
A--|-----------------------4--|--------------------------|
E--|--------------------------|--------------------------|


162.  |  .  |  .  |  .  |  .     |  .  |  .  |  .  |  .     
E--|--0-----------------------|--------0--------------9--|
B--|--2-----------------------|-----------10-9-10-12-----|
G--|--2-----------2-----1-----|--2-----------------------|
D--|--2-----------------------|--------------------------|
A--|--------------------------|--0-----------------------|
E--|--------------0-----0-----|--------------------------|


164.  |  .  |  .  |  .  |  .     |  .  |  .  |  .  |  .     
E--|-10--0--------------------|--------0--------------9--|
B--|--------3--2--0--2--3--0--|--2--------10-9-10-12-----|
G--|--------------------------|--------------------------|
D--|--------------------------|--------------------------|
A--|--------------------------|--0-----------------------|
E--|--0-----------------------|--------------------------|


166.  |  .  |  .  |  .  |  .     |  .  |  .  |  .  |  .     
E--|-10--0--------------------|--------------9-10-12-10--|
B--|--------3--2--0--2--3--0--|--2----10--12-------------|
G--|--------------------------|--------------------------|
D--|--------------------------|--------------------------|
A--|--------------------------|--0-----------------------|
E--|--0-----------------------|--------------------------|


168.  |  .  |  .  |  .  |  .     |  .  |  .  |  .  |  .     
E--|--9--------------0--------|--------------------2-----|
B--|----12--10----------3--2--|--2-----------2--------2--|
G--|-----------12-11----------|-----------2-----2--------|
D--|--------------------------|-----0--------------------|
A--|--0-----------------------|--------4-----------------|
E--|--------------------------|--------------------------|


170.  |  .  |  .  |  .  |  .     |  .  |  .  |  .  |  .     
E--|--5--2-10--9--7-----------|--0--------9--12-11-10-9--|
B--|----------------10--9--7--|-------10-----------------|
G--|--------------------------|--------------------------|
D--|--------------------------|--------------------------|
A--|--------------------------|--0-----------------------|
E--|--------------------------|--------------------------|


172.  |  .  |  .  |  .  |  .     |  .  |  .  |  .  |  .     
E--|-9t7...................5h7|--5-----------------------|
B--|--------------------------|-----5-----5-----5--5--5--|
G--|--------------------------|--------6-----------------|
D--|--------------------------|--------------7-----------|
A--|--------------------------|--0-----------------------|
E--|--0-----------------------|--------------------------|


174.  |  .  |  .  |  .  |  .     |  .  |  .  |  .  |  .     
E--|-----0-----0-----0-----0--|-----0--------------------|
B--|--4-----3-----2-----------|--------------2-----------|
G--|--------------------1-----|--2--------2-----2-----2--|
D--|--------------------------|--------------------------|
A--|--------------------------|--------4-----------4-----|
E--|--------------------------|--------------------------|


176.  |  .  |  .  |  .  |  .     |  .  |  .  |  .  |  .     
E--|--2-----------0-----------|--0--------------------0--|
B--|--3-----------3-----------|--2-----------------------|
G--|--2-----------1-----------|--2-----------------------|
D--|--0-----------2-----------|--------------------2-----|
A--|--------------------------|--0-----------------------|
E--|--------------------------|--------------------------|


178.  |  .  |  .  |  .  |  .     |  .  |  .  |  .  |  .     
E--|-----2-----4--s--5--s--7--|--s--9s-12----------9-----|
B--|--------------------------|-----------------------10-|
G--|--------1--s--2--s--4--s--|--6---s-9-----------------|
D--|--4-----------------------|--------------------------|
A--|--------------------------|--------------------------|
E--|--------------------------|--------------------------|


180.  |  .  |  .  |  .  |  .     |  .  |  .  |  .  |  .     
E--|--2-----s-----4-----s-----|--5-----------7--------9--|
B--|--------------------------|--------------5-----------|
G--|--------------------------|--------------7-----------|
D--|--4-----s-----6-----s-----|--7-----------6-----------|
A--|--------------------------|--------------------------|
E--|--------------------------|--------------------------|


182.  |  .  |  .  |  .  |  .     |  .  |  .  |  .  |  .     
E--|--5-----------7--------9--|--5-----7-----5-----7-----|
B--|--5-----------5-----------|--5-----5-----5-----5-----|
G--|--6-----------7-----------|--6-----7-----5-----7-----|
D--|--7-----------6-----------|--7-----6-----7-----6-----|
A--|--------------------------|--------------------------|
E--|--------------------------|--------------------------|


184.  |  .  |  .  |  .  |  .     |  .  |  .  |  .  |  .     
E--|--5-----0-----0-----0-----|--0-----------0--------0--|
B--|--5-----0-----2-----0-----|--2-----------2--------2--|
G--|--6-----1-----2-----1-----|--2-----------2--------2--|
D--|--7-----------------------|--------------2--------2--|
A--|--------------0-----------|--0-----------0--------0--|
E--|--------0-----------0-----|--------------------------|


186.  |  .  |  .  |  .  |  .         
E--|--0-----------------------||
B--|--2-----------------------||
G--|--2-----------------------||
D--|--2-----------------------||
A--|--0-----------------------||
E--|--------------------------||
Tap to rate this tab
 
# A B C D E F G H I J K L M N O P Q R S T U V W X Y Z