Song name
# A B C D E F G H I J K L M N O P Q R S T U V W X Y Z

Nicolo Paganini - Romanze In Am tab

     E.  S E   Q    E     Q    E  E  E  E     E.  S E  Q    E   
E||--------------------|-------------------|-------------------|
B||--5---6-5--10----6--|--5----5--5--3--1--|--0---1-0--5----3--|
G||--5--------------7--|--5-------5--4--2--|--1-------------4--|
D||-----------10-------|-------------------|-----------6-------|
A||--0---------0-------|--0----------------|-------------------|
E||--------------------|-------------------|--0--------0-------|


  Q    E  Q    E     E.  S E   Q    E     E.  S E   Q    E   
------------------|--------------------|--------------------|
--1---------------|--6---5-6--10----6--|--5---4-5--10----5--|
--2-------2-------|-----------10----7--|--5--------------5--|
-------2----------|--7---------0-------|-----------10-------|
--0-------0-------|--5-----------------|--0---------0-------|
------------------|--------------------|--------------------|


                            |--3--|                                 
  E  E  E  E  E  E     Q    T  T  T  E.  Q       E.  S E   Q    E   
--------------------|-------------------------|--------------------|
--5-----0--3--1-----|--1----0h-3p-1p-0--------|--5---6-5--10----6--|
-----7-----2-----2--|-------------------------|--5--------------7--|
--6-----6--------1--|--2----------------------|-----------10-------|
-----------0--------|-------------------------|--0---------0-------|
--0-----------------|--0----------------------|--------------------|


   Q    E   E   E  E     E.  S E   Q     E     Q    E  Q    E   
-----------12--10--8--|-----------12----10--|--8---------------|
----------------------|--0------------------|------------------|
---9----9---9---7--5--|------5-4---9-----7--|--5---------------|
--10-------10---9--7--|--6---------------9--|--7-------7-------|
---0------------------|-----------11--------|--0----7----------|
----------------------|--0---------0--------|----------5-------|


                                                               ^   
    E.  S E     Q    E     E.  S E   Q    E     E  E  E  E  E  E   
------------------------|--------------------|--------------------|
--8g6---5-6--9g10----6--|--5---4-5--10----5--|--5-----0--1--0-----|
---------------10----7--|--5--------------5--|-----7-----2-----2--|
----7-----------0-------|-----------10-------|--6--------------1--|
----5-------------------|--0---------0-------|-----------0--------|
------------------------|--------------------|--0--------------1--|


                                    NH   NH    
  T T T T T T T T T T T T  E   E    E    Q     
------------------0---4-7-12--15--<>7--<>5----|
----------0-----0---5-------------------------|
--------1-----1-------------------------------|
------2-----2---------------------------------|
----2-----------------------------------------|
--0-------------------------------------------|


  T T T T T T T T T T T T   T T T T T T T T T T T T  
------------------0---------------------------------|
--1-----------------------3g1-------0-------1-------|
----0---0---0---0---0---0-----0---0---0---0---0---0-|
------2-------2-------2---------2-------2-------2---|
--3-------3-------3---------3-------3-------3-------|
----------------------------------------------------|


  T T T T T T T T T T T T S S S S S S  
----------------------------5-3-2-1---|
--2---------------3-----------------3-|
----0---0---0---0---0---0-------------|
------0-------0-------0---------------|
--2-------2-------2-------2-----------|
--------------------------------------|


  T T T T T T T T T T T T   T T T T T T T T T T T T  
------------------0---------------------------------|
--1-----------------------3g1-------0-------1-------|
----0---0---0---0---0---0-----0---0---0---0---0---0-|
------2-------2-------2---------2-------2-------2---|
--3-------3-------3---------3-------3-------3-------|
----------------------------------------------------|


  T T T T T T T T T T T T S S S S S S  
----------------------------5-3-2-1---|
--2---------------3-----------------3-|
----0---0---0---0---0---0-------------|
------0-------0-------0---------------|
--2-------2-------2-------2-----------|
--------------------------------------|


  T T T T T T T T T T T T T T T T T T T T T T T T  
------------------3-------3-------1-------0-------|
--1-----------------------------------------------|
----0---0---0---0---0---0---0---0---0---0---0---0-|
------2-------2-------2-------2-------2-------2---|
--3-------3-------3-------------------------------|
--------------------------0-------0-------0-------|


  T T T T T T T T T T T T S S S S S S  
--0-----------------------------0-1-5-|
------------------3---------2-3-------|
------2-------2-------2---------------|
----3---3---3---3---3---3-------------|
--------------------------------------|
--1-------1-------1-------1-----------|


  T T T T T T T T T T T T T T T T T T T T T T T T  
----------------------------------3-------1-------|
--1---------------1-------3-----------------------|
----0---0---0---0---------------------------------|
------2-------2-----2---2---0---0---0---0---0---0-|
----------------------3-------2-------2-------2---|
--3-------3-------3-------3-------3-------3-------|


  T T T T T T T T T T T T S S S S S S    S S S S S S  S  S S S S S  
--1---------------0---------0-1-3-5-7-|--8---------8-12-10-8-7-5-4-|
--------------------------------------|----------------------------|
----2---2---2---2---2---2-------0-2-4-|--5---------5--9--7-5-4-2-1-|
------2-------2-------2-----2-3-------|----5---5-------------------|
--0-------0-------0-------0-----------|------7---------------------|
--------------------------------------|----------8-----------------|


  S S S S S S S S  S S S S    S S S S S S T  T T  T T  T T  T T T T T  
--5---------5-8-7-10-8-5-1-|--0-1-2-3-2-3-2h-3-5p-3-1p-0-3p-1-0-------|
---------------------------|------------------------------------3-1-0-|
--2---------2-5-4--7-5-2---|------------------------------------------|
-------------------------3-|--2-3-4-5-4-5-----------------------------|
----3-0-3-0----------------|------------------------------------------|
---------------------------|------------------------------------------|


  Q    E  E.  S E     Q    S  S E.  S E     Q    S  S E.  S E   
----------0---1-0--|--0----7p-4-0---1-0--|--0----8p-5-0---1-0--|
--1----------------|--0------------------|--1------------------|
-------------------|--1------------------|--2------------------|
----------2---3-2--|------------2---3-2--|------------2---3-2--|
--3----------------|---------------------|--0------------------|
-------------------|--0------------------|---------------------|


  Q    E    T T T T  T  T T T T T T T Q    E     S T T S S S S S T T S   S S S  
-------5--7g5-4-5-7-10p-8-7-5---------5-------|--------0-0-2-4-------5-7g8-7-5-|
--3---------------------------8-6-5-4------4--|------0-------------5-----------|
--5-------------------------------------------|----1-------------5-------------|
--3-------------------------------------------|--------------------------------|
----------------------------------------------|----------------0---------------|
----------------------------------------------|--0-----------------------------|


                           ^ ^                ^                  
  S T T S    S S S S T T S S S S    S T T S S S S S T T S S S S  
----0-4-7-8g10-8-7-------5-1-0---|--------0---5---------0---5---|
-----------------------5-------4-|------0-----4-------0-----4---|
---------------------5-----------|----1-----2-5-----1-----2-5---|
---------------------------3-2-1-|--------------3-------------3-|
--0----------------0-------------|------------------------------|
---------------------------------|--0-------------0-------------|


  E  T T T T T T T T T T T T T S S S S S S S  S S S  S S S  S S E  E  E  E  E  E
---------------------------------2-4-5-7-4-7p-5-2-5p-3-0-3p-2-------------------
---------------------------2-4-5------------------------------4-5---------------
---------------------1-2-4-----------------------------------------------------0
---------------1-2-4-----------------------------------------------1--2--3--4---
---------0-2-4------------------------------------------------------------------
--0--2-4------------------------------------------------------------------------


E E E E E E E E    E.  S E   Q    E     Q    E  E  E  E     E.  S E  Q    E   
----------------|--------------------|-------------------|-----------0-------|
------0-1-2-3-4-|--5---6-5--10----6--|--5----5--5--3--1--|--0---1-0-------3--|
1-2-3-----------|--5--------------7--|--5-------5--4--2--|--1--------1----4--|
----------------|-----------10-------|-------------------|-------------------|
----------------|--0---------0-------|--0-------0--------|-------------------|
----------------|--------------------|-------------------|--0--------0-------|


         |--6--|  |--6--|                             |--3--|  
    Q    T  T  T  T  T  T Q    E     E.  S E   E.  S  S  S  S  
----------------------------------|---------------------------|
--3g1----0h-1h-3p-1p-0h-1---------|--6---5-6--10---9-12-10----|
----2---------------------2-------|-----------10-----------10-|
---------2------------------------|--7---------0--------------|
----0---------------------0-------|--5------------------------|
----------------------------------|---------------------------|


                               |--3-|                                    
  E.  S E   Q    E     E  S. T S  S S Q      E     E  E  E  S S S S S S  
--------------------|---------------------------|-------------5-4-3-2-1-|
--5---4-5--10----5--|--0--0--1-3h-5-6------1g0--|-----------------------|
--5-----------------|-----------------2---------|--2--------------------|
-----------10-------|--0--------------2---------|--------2--------------|
--0---------0-------|---------------------------|--0--3-----0-----------|
--------------------|------------------------0--|-----------------------|


  E  E  E  S  S  S  S S S    E  E  E  S S S S S S  
--0----------12-11-10-8-7-|--5----------5-4-3-1-0-|
--------------------------|-----------------------|
--------------9--8--7-5-4-|--2----------2-1-0-----|
--------------------------|--------2----------3-2-|
--------------------------|--0--3-----0-----------|
--0--4--7--0--------------|-----------------------|


                         |--3--|                                    
  T T  T T T  T T  T T T T  T  T Q      E     E  E  E  S S S S S S  
---------0-1p-0-3p-1-0---------------------|-------------0-1-2-3-4-|
----2h-3---------------3-1h-3p-0------1g0--|-----------------------|
---------------------------------2---------|--2----------------0-1-|
--0------------------------------2---------|--------2----2-3-4-----|
-------------------------------------------|--0--3-----------------|
----------------------------------------0--|-----------0-----------|


  E  E  E  S  S  S  S S S    E  S  S S  S E  S  S S  S  
--5----------12-11-10-8-7-|-----4h-5-4h-5----7h-8-7h-8-|
--------------------------|---------------0------------|
--2-----------9--8--7-5-4-|--5-------------------------|
--------2-----------------|---------------6------------|
--0--3--------------------|--0------------0------------|
-----------0--------------|----------------------------|


  E  S  S S  S E  S  S S  S    Q    H          
-----4h-5-4h-5--------------|----------------||
------------------4h-5-4h-5-|----------------||
--5------------5------------|--2-------------||
---------------2------------|----------------||
--0------------0------------|--0-------------||
----------------------------|----------------||


at least.this song was missing from this site.no it doesn't.enjoy
Tap to rate this tab
# A B C D E F G H I J K L M N O P Q R S T U V W X Y Z