Song name
# A B C D E F G H I J K L M N O P Q R S T U V W X Y Z

Nirvana - Curmudgeon tab

Date: Mon, 1 Jan 1996 02:03:41 -0500 (EST)
From: Matt Snyder 
Subject: TAB: Curmudgeon by Nirvana


Transcribed by Matt Snyder      msnyder@freenet.columbus.oh.us  
E-mail me for questions comments, or if you just think I need mail.

Curmudgeon
by
NIRVANA

From the Lithium single
Tune down one half step
Eb Ab Db Gb Bb Eb
( Low to high )

I didnt put how many times to play the riffs. Its easy to figure out.

^ = bend
< = pull off
/ = slide

------------------------------------
------------------------------------
----------------6----------------6--
------------------------------------
--8/9--8/9--8-7----8/9--8/9--8-7----
--6/7--6/7--6-0----6/7--6/7--6-0----
  I'm a lady etc...

--------------------------------------------------------
--------------------------------------------------------
---------------------------------------7^ 7^------------
------------------5-5-5-5-5-5-5-5-----------------------
--4-4-4-4-4-4-4-4-3-3-3-3-3-3-3-3-----------------------
--2-2-2-2-2-2-2-2------------------3<0------------------
                                   She's at the scene etc.   

That's all except for the solo, but I'm not good enough to figure it out,
and its mostly just weird noises anyway.
I didn't put most of the words because I can't figure them out.

msnyder@columbus.oh.us
Tap to rate this tab
# A B C D E F G H I J K L M N O P Q R S T U V W X Y Z