Song name
# A B C D E F G H I J K L M N O P Q R S T U V W X Y Z

Nirvana - Son Of A Gun tab

Son Of A Gun - Nirvana - Incesticide

Nirvana:
Kurt Cobain (1967-1994): Lead Vocals & Guitar
Krist Novoselic: Bass Guitar
Dave Grohl: Drums & Back Vocals

This is a Vaselines cover, and it is probably one of the best if not the best in the 
Incesticide.
Please rate, post comments, and enjoy playing! :P


Verse:

e|--------------------------------------------------|
B|--------------------------------------------------|
G|--2--2--2--2--------------7--7--7--7--------------|
D|--2--2--2--2--2--2--2--2--7--7--7--7--2--2--2--2--|
A|--0--0--0--0--2--2--2--2--5--5--5--5--2--2--2--2--|
E|--------------0--0--0--0--------------0--0--0--0--|
    Up, up, up and down. Turn, turn, turnaround.

e|--------------------------------------------------|
B|--------------------------------------------------|
G|--2--2--2--2--------------7--7--7--7--------------|
D|--2--2--2--2--2--2--2--2--7--7--7--7--2--2--2--2--|
A|--0--0--0--0--2--2--2--2--5--5--5--5--2--2--2--2--|
E|--------------0--0--0--0--------------0--0--0--0--|
    Round, round, roundabout and over again.

e|--------------------------------------------------|
B|--------------------------------------------------|
G|--2--2--2--2--------------7--7--7--7--------------|
D|--2--2--2--2--2--2--2--2--7--7--7--7--2--2--2--2--|
A|--0--0--0--0--2--2--2--2--5--5--5--5--2--2--2--2--|
E|--------------0--0--0--0--------------0--0--0--0--|
    Son, son, son of a gun, you are the only one

e|--------------------------------------------------|
B|--------------------------------------------------|
G|--2--2--2--2--------------7--7--7--7--------------|
D|--2--2--2--2--2--2--2--2--7--7--7--7--2--2--2--2--|
A|--0--0--0--0--2--2--2--2--5--5--5--5--2--2--2--2--|
E|--------------0--0--0--0--------------0--0--0--0--|
    that makes any difference to what I say.


Chorus:

e|--------------------------------------------------------------------------|
B|--------------------------------------------------------------------------|
G|-------------------5-5-5-5-5-5-5-5-/-7-7-7-7-7-7-7-7-\-5-5-5-5-5-5-5-5----|
D|--5-5-5-5-5-5-5-5--5-5-5-5-5-5-5-5-/-7-7-7-7-7-7-7-7-\-5-5-5-5-5-5-5-5----|
A|--5-5-5-5-5-5-5-5--3-3-3-3-3-3-3-3-/-5-5-5-5-5-5-5-5-\-3-3-3-3-3-3-3-3----|
E|--3-3-3-3-3-3-3-3---------------------------------------------------------|
    The sun shines in the bedroom,             When we plaaaaay.

e|--------------------------------------------------------------------------|
B|--------------------------------------------------------------------------|
G|-------------------5-5-5-5-5-5-5-5-/-7-7-7-7-7-7-7-7-\-5-5-5-5-5-5-5-5----|
D|--5-5-5-5-5-5-5-5--5-5-5-5-5-5-5-5-/-7-7-7-7-7-7-7-7-\-5-5-5-5-5-5-5-5----|
A|--5-5-5-5-5-5-5-5--3-3-3-3-3-3-3-3-/-5-5-5-5-5-5-5-5-\-3-3-3-3-3-3-3-3----|
E|--3-3-3-3-3-3-3-3---------------------------------------------------------|
    The raaaining    always starts,    when you go awaaaaay.

e|--------------------------------------------------------------------------|
B|--------------------------------------------------------------------------|
G|-------------------5-5-5-5-5-5-5-5-/-7-7-7-7-7-7-7-7-\-5-5-5-5-5-5-5-5----|
D|--5-5-5-5-5-5-5-5--5-5-5-5-5-5-5-5-/-7-7-7-7-7-7-7-7-\-5-5-5-5-5-5-5-5----|
A|--5-5-5-5-5-5-5-5--3-3-3-3-3-3-3-3-/-5-5-5-5-5-5-5-5-\-3-3-3-3-3-3-3-3----|
E|--3-3-3-3-3-3-3-3---------------------------------------------------------|
    The sun shines in the bedroom,             When we plaaaaay.

e|--------------------------------------------------------------------------|
B|--------------------------------------------------------------------------|
G|-------------------5-5-5-5-5-5-5-5-/-7-7-7-7-7-7-7-7-\-5-5-5-5-5-5-5-5----|
D|--5-5-5-5-5-5-5-5--5-5-5-5-5-5-5-5-/-7-7-7-7-7-7-7-7-\-5-5-5-5-5-5-5-5----|
A|--5-5-5-5-5-5-5-5--3-3-3-3-3-3-3-3-/-5-5-5-5-5-5-5-5-\-3-3-3-3-3-3-3-3----|
E|--3-3-3-3-3-3-3-3---------------------------------------------------------|
    The raaaining    always starts,    when you go awaaaaay.


Verse:

e|--------------------------------------------------|
B|--------------------------------------------------|
G|--2--2--2--2--------------7--7--7--7--------------|
D|--2--2--2--2--2--2--2--2--7--7--7--7--2--2--2--2--|
A|--0--0--0--0--2--2--2--2--5--5--5--5--2--2--2--2--|
E|--------------0--0--0--0--------------0--0--0--0--|
    Up, up, up and down. Turn, turn, turnaround.

e|--------------------------------------------------|
B|--------------------------------------------------|
G|--2--2--2--2--------------7--7--7--7--------------|
D|--2--2--2--2--2--2--2--2--7--7--7--7--2--2--2--2--|
A|--0--0--0--0--2--2--2--2--5--5--5--5--2--2--2--2--|
E|--------------0--0--0--0--------------0--0--0--0--|
    Round, round, roundabout and over again.

e|--------------------------------------------------|
B|--------------------------------------------------|
G|--2--2--2--2--------------7--7--7--7--------------|
D|--2--2--2--2--2--2--2--2--7--7--7--7--2--2--2--2--|
A|--0--0--0--0--2--2--2--2--5--5--5--5--2--2--2--2--|
E|--------------0--0--0--0--------------0--0--0--0--|
    Son, son, son of a gun, you are the only one

e|--------------------------------------------------|
B|--------------------------------------------------|
G|--2--2--2--2--------------7--7--7--7--------------|
D|--2--2--2--2--2--2--2--2--7--7--7--7--2--2--2--2--|
A|--0--0--0--0--2--2--2--2--5--5--5--5--2--2--2--2--|
E|--------------0--0--0--0--------------0--0--0--0--|
    that makes any difference to what I say.


Chorus:

e|--------------------------------------------------------------------------|
B|--------------------------------------------------------------------------|
G|-------------------5-5-5-5-5-5-5-5-/-7-7-7-7-7-7-7-7-\-5-5-5-5-5-5-5-5----|
D|--5-5-5-5-5-5-5-5--5-5-5-5-5-5-5-5-/-7-7-7-7-7-7-7-7-\-5-5-5-5-5-5-5-5----|
A|--5-5-5-5-5-5-5-5--3-3-3-3-3-3-3-3-/-5-5-5-5-5-5-5-5-\-3-3-3-3-3-3-3-3----|
E|--3-3-3-3-3-3-3-3---------------------------------------------------------|
    The sun shines in the bedroom,             When we plaaaaay.

e|--------------------------------------------------------------------------|
B|--------------------------------------------------------------------------|
G|-------------------5-5-5-5-5-5-5-5-/-7-7-7-7-7-7-7-7-\-5-5-5-5-5-5-5-5----|
D|--5-5-5-5-5-5-5-5--5-5-5-5-5-5-5-5-/-7-7-7-7-7-7-7-7-\-5-5-5-5-5-5-5-5----|
A|--5-5-5-5-5-5-5-5--3-3-3-3-3-3-3-3-/-5-5-5-5-5-5-5-5-\-3-3-3-3-3-3-3-3----|
E|--3-3-3-3-3-3-3-3---------------------------------------------------------|
    The raaaining    always starts,    when you go awaaaaay.

e|--------------------------------------------------------------------------|
B|--------------------------------------------------------------------------|
G|-------------------5-5-5-5-5-5-5-5-/-7-7-7-7-7-7-7-7-\-5-5-5-5-5-5-5-5----|
D|--5-5-5-5-5-5-5-5--5-5-5-5-5-5-5-5-/-7-7-7-7-7-7-7-7-\-5-5-5-5-5-5-5-5----|
A|--5-5-5-5-5-5-5-5--3-3-3-3-3-3-3-3-/-5-5-5-5-5-5-5-5-\-3-3-3-3-3-3-3-3----|
E|--3-3-3-3-3-3-3-3---------------------------------------------------------|
    The sun shines in the bedroom,             When we plaaaaay.

e|--------------------------------------------------------------------------|
B|--------------------------------------------------------------------------|
G|-------------------5-5-5-5-5-5-5-5-/-7-7-7-7-7-7-7-7-\-5-5-5-5-5-5-5-5----|
D|--5-5-5-5-5-5-5-5--5-5-5-5-5-5-5-5-/-7-7-7-7-7-7-7-7-\-5-5-5-5-5-5-5-5----|
A|--5-5-5-5-5-5-5-5--3-3-3-3-3-3-3-3-/-5-5-5-5-5-5-5-5-\-3-3-3-3-3-3-3-3----|
E|--3-3-3-3-3-3-3-3---------------------------------------------------------|
    The raaaining    always starts,    when you go awaaaaay.


Bridge:

e|---------------------------------------------------------------------------|
B|---------------------------------------------------------------------------|
G|--------------------7-7-7-7-7-7-7-7---------------------7-7-7-7-7-7-7-7----|
D|--5-5-5-5-5-5-5-5-/-7-7-7-7-7-7-7-7-\-5-5-5-5-5-5-5-5-/-7-7-7-7-7-7-7-7----|
A|--5-5-5-5-5-5-5-5-/-5-5-5-5-5-5-5-5-\-5-5-5-5-5-5-5-5-/-5-5-5-5-5-5-5-5----|
E|--3-3-3-3-3-3-3-3---------------------3-3-3-3-3-3-3-3----------------------|

e|---------------------------------------------------------------------------|
B|---------------------------------------------------------------------------|
G|--------------------9-9-9-9-9-9-9-9---------------------9-9-9-9-9-9-9-9----|
D|--7-7-7-7-7-7-7-7-/-9-9-9-9-9-9-9-9-\-7-7-7-7-7-7-7-7-/-9-9-9-9-9-9-9-9----|
A|--7-5-7-7-7-7-7-7-/-7-7-7-7-7-7-7-7-\-7-7-7-7-7-7-7-7-/-7-7-7-7-7-7-7-7----|
E|--5-5-5-5-5-5-5-5---------------------5-5-5-5-5-5-5-5----------------------|

e|---------------------------------------------------------------------------|
B|---------------------------------------------------------------------------|
G|--------------------7-7-7-7-7-7-7-7---------------------7-7-7-7-7-7-7-7----|
D|--5-5-5-5-5-5-5-5-/-7-7-7-7-7-7-7-7-\-5-5-5-5-5-5-5-5-/-7-7-7-7-7-7-7-7----|
A|--5-5-5-5-5-5-5-5-/-5-5-5-5-5-5-5-5-\-5-5-5-5-5-5-5-5-/-5-5-5-5-5-5-5-5----|
E|--3-3-3-3-3-3-3-3---------------------3-3-3-3-3-3-3-3----------------------|

e|---------------------------------------------------------------------------|
B|---------------------------------------------------------------------------|
G|--------------------7-7-7-7-7-7-7-7---------------------7-7-7-7-7-7-7-7----|
D|--5-5-5-5-5-5-5-5-/-7-7-7-7-7-7-7-7-\-5-5-5-5-5-5-5-5-/-7-7-7-7-7-7-7-7----|
A|--5-5-5-5-5-5-5-5-/-5-5-5-5-5-5-5-5-\-5-5-5-5-5-5-5-5-/-5-5-5-5-5-5-5-5----|
E|--3-3-3-3-3-3-3-3---------------------3-3-3-3-3-3-3-3----------------------|


Verse:

e|--------------------------------------------------|
B|--------------------------------------------------|
G|--2--2--2--2--------------7--7--7--7--------------|
D|--2--2--2--2--2--2--2--2--7--7--7--7--2--2--2--2--|
A|--0--0--0--0--2--2--2--2--5--5--5--5--2--2--2--2--|
E|--------------0--0--0--0--------------0--0--0--0--|
    Up, up, up and down. Turn, turn, turnaround.

e|--------------------------------------------------|
B|--------------------------------------------------|
G|--2--2--2--2--------------7--7--7--7--------------|
D|--2--2--2--2--2--2--2--2--7--7--7--7--2--2--2--2--|
A|--0--0--0--0--2--2--2--2--5--5--5--5--2--2--2--2--|
E|--------------0--0--0--0--------------0--0--0--0--|
    Round, round, roundabout and over again.

e|--------------------------------------------------|
B|--------------------------------------------------|
G|--2--2--2--2--------------7--7--7--7--------------|
D|--2--2--2--2--2--2--2--2--7--7--7--7--2--2--2--2--|
A|--0--0--0--0--2--2--2--2--5--5--5--5--2--2--2--2--|
E|--------------0--0--0--0--------------0--0--0--0--|
    Son, son, son of a gun, you are the only one

e|--------------------------------------------------|
B|--------------------------------------------------|
G|--2--2--2--2--------------7--7--7--7--------------|
D|--2--2--2--2--2--2--2--2--7--7--7--7--2--2--2--2--|
A|--0--0--0--0--2--2--2--2--5--5--5--5--2--2--2--2--|
E|--------------0--0--0--0--------------0--0--0--0--|
    that makes any difference to what I say.


Chorus:

e|--------------------------------------------------------------------------|
B|--------------------------------------------------------------------------|
G|-------------------5-5-5-5-5-5-5-5-/-7-7-7-7-7-7-7-7-\-5-5-5-5-5-5-5-5----|
D|--5-5-5-5-5-5-5-5--5-5-5-5-5-5-5-5-/-7-7-7-7-7-7-7-7-\-5-5-5-5-5-5-5-5----|
A|--5-5-5-5-5-5-5-5--3-3-3-3-3-3-3-3-/-5-5-5-5-5-5-5-5-\-3-3-3-3-3-3-3-3----|
E|--3-3-3-3-3-3-3-3---------------------------------------------------------|
    The sun shines in the bedroom,             When we plaaaaay.

e|--------------------------------------------------------------------------|
B|--------------------------------------------------------------------------|
G|-------------------5-5-5-5-5-5-5-5-/-7-7-7-7-7-7-7-7-\-5-5-5-5-5-5-5-5----|
D|--5-5-5-5-5-5-5-5--5-5-5-5-5-5-5-5-/-7-7-7-7-7-7-7-7-\-5-5-5-5-5-5-5-5----|
A|--5-5-5-5-5-5-5-5--3-3-3-3-3-3-3-3-/-5-5-5-5-5-5-5-5-\-3-3-3-3-3-3-3-3----|
E|--3-3-3-3-3-3-3-3---------------------------------------------------------|
    The raaaining    always starts,    when you go awaaaaay.

e|--------------------------------------------------------------------------|
B|--------------------------------------------------------------------------|
G|-------------------5-5-5-5-5-5-5-5-/-7-7-7-7-7-7-7-7-\-5-5-5-5-5-5-5-5----|
D|--5-5-5-5-5-5-5-5--5-5-5-5-5-5-5-5-/-7-7-7-7-7-7-7-7-\-5-5-5-5-5-5-5-5----|
A|--5-5-5-5-5-5-5-5--3-3-3-3-3-3-3-3-/-5-5-5-5-5-5-5-5-\-3-3-3-3-3-3-3-3----|
E|--3-3-3-3-3-3-3-3---------------------------------------------------------|
    The sun shines in the bedroom,             When we plaaaaay.

e|--------------------------------------------------------------------------|
B|--------------------------------------------------------------------------|
G|-------------------5-5-5-5-5-5-5-5-/-7-7-7-7-7-7-7-7-\-5-5-5-5-5-5-5-5----|
D|--5-5-5-5-5-5-5-5--5-5-5-5-5-5-5-5-/-7-7-7-7-7-7-7-7-\-5-5-5-5-5-5-5-5----|
A|--5-5-5-5-5-5-5-5--3-3-3-3-3-3-3-3-/-5-5-5-5-5-5-5-5-\-3-3-3-3-3-3-3-3----|
E|--3-3-3-3-3-3-3-3---------------------------------------------------------|
    The raaaining    always starts,    when you go awaaaaay.

e|--------------------------------------------------------------------------|
B|--------------------------------------------------------------------------|
G|-------------------5-5-5-5-5-5-5-5-/-7-7-7-7-7-7-7-7-\-5-5-5-5-5-5-5-5----|
D|--5-5-5-5-5-5-5-5--5-5-5-5-5-5-5-5-/-7-7-7-7-7-7-7-7-\-5-5-5-5-5-5-5-5----|
A|--5-5-5-5-5-5-5-5--3-3-3-3-3-3-3-3-/-5-5-5-5-5-5-5-5-\-3-3-3-3-3-3-3-3----|
E|--3-3-3-3-3-3-3-3---------------------------------------------------------|
    The sun shines in the bedroom,             When we plaaaaay.

e|--------------------------------------------------------------------------|
B|--------------------------------------------------------------------------|
G|-------------------5-5-5-5-5-5-5-5-/-7-7-7-7-7-7-7-7-\-5-5-5-5-5-5-5-5----|
D|--5-5-5-5-5-5-5-5--5-5-5-5-5-5-5-5-/-7-7-7-7-7-7-7-7-\-5-5-5-5-5-5-5-5----|
A|--5-5-5-5-5-5-5-5--3-3-3-3-3-3-3-3-/-5-5-5-5-5-5-5-5-\-3-3-3-3-3-3-3-3----|
E|--3-3-3-3-3-3-3-3---------------------------------------------------------|
    The raaaining    always starts,    when you go awaaaaay.

e|--------------------------------------------------------------------------|
B|--------------------------------------------------------------------------|
G|-------------------5-5-5-5-5-5-5-5-/-7-7-7-7-7-7-7-7-\-5-5-5-5-5-5-5-5----|
D|--5-5-5-5-5-5-5-5--5-5-5-5-5-5-5-5-/-7-7-7-7-7-7-7-7-\-5-5-5-5-5-5-5-5----|
A|--5-5-5-5-5-5-5-5--3-3-3-3-3-3-3-3-/-5-5-5-5-5-5-5-5-\-3-3-3-3-3-3-3-3----|
E|--3-3-3-3-3-3-3-3---------------------------------------------------------|
    The sun shines in the bedroom,             When we plaaaaay.

e|--------------------------------------------------------------------------|
B|--------------------------------------------------------------------------|
G|-------------------5-5-5-5-5-5-5-5-/-7-7-7-7-7-7-7-7-\-5-5-5-5-5-5-5-5----|
D|--5-5-5-5-5-5-5-5--5-5-5-5-5-5-5-5-/-7-7-7-7-7-7-7-7-\-5-5-5-5-5-5-5-5----|
A|--5-5-5-5-5-5-5-5--3-3-3-3-3-3-3-3-/-5-5-5-5-5-5-5-5-\-3-3-3-3-3-3-3-3----|
E|--3-3-3-3-3-3-3-3---------------------------------------------------------|
    The raaaining    always starts,    when you go awaaaaay.


End On:

e|---------|
B|---------|
G|---------|
D|--5~~----|
A|--5~~----|
E|--3~~----|


and that's it! This song is really fun to play. Nirvana rules, and Kurt Cobain lives 
in the hearts of us fans! Teen Spirit FOREVER!
Tap to rate this tab
# A B C D E F G H I J K L M N O P Q R S T U V W X Y Z