Song name
# A B C D E F G H I J K L M N O P Q R S T U V W X Y Z

Nirvana - Downer tab

Album|Bleach/Insecticide 
Year|1989

Tuning|Standard


e|------------------------------------|
b|------------------------------------|
G|------------------------------------|
D|---------5-5-(5)---------5-5-(5)----|
A|---------3-3-(3)---------3-3-(3)----|
E|-0-0-0-0---------0-0-0-0------------|


       (x7)
e|-----------------|--------------------------|
b|-----------------|--------------------------|
G|-----------------|--------------------------|
D|-----------------|--------------------------|
A|-5-5-5/9-9-9-----|-7-7-7/-10-10-10----------|
E|-5-5-5/7-7-7-----|-5-5-5/-8--8--8-----------|


e|------------------------------------|
b|------------------------------------|
G|------------------------------------|
D|---------5-5-(5)---------5-5-(5)----|
A|---------3-3-(3)---------3-3-(3)----|
E|-0-0-0-0---------0-0-0-0------------|


       (x2)
e|-------------------------------------------------|
b|-------------------------------------------------|
G|-----------------0-8-8-8-8-0-9-9-9-9-9-9---------|
D|-7-7-7-7/8-8-8-8-0-8-8-8-8-0-9-9-9-9-9-9---------|
A|-7-7-7-7/8-8-8-8-0-6-6-6-6-0-7-7-7-7-7-7---------|
E|-5-5-5-5/6-6-6-6---------------------------------|


e|------------------------------------|
b|------------------------------------|
G|------------------------------------|
D|---------5-5-(5)---------5-5-(5)----|
A|---------3-3-(3)---------3-3-(3)----|
E|-0-0-0-0---------0-0-0-0------------|


       (x7)
e|-----------------|--------------------------|
b|-----------------|--------------------------|
G|-----------------|--------------------------|
D|-----------------|--------------------------|
A|-5-5-5/9-9-9-----|-7-7-7/-10-10-10----------|
E|-5-5-5/7-7-7-----|-5-5-5/-8--8--8-----------|


e|------------------------------------|
b|------------------------------------|
G|------------------------------------|
D|---------5-5-(5)---------5-5-(5)----|
A|---------3-3-(3)---------3-3-(3)----|
E|-0-0-0-0---------0-0-0-0------------|


       (x2)
e|-------------------------------------------------|
b|-------------------------------------------------|
G|-----------------0-8-8-8-8-0-9-9-9-9-9-9---------|
D|-7-7-7-7/8-8-8-8-0-8-8-8-8-0-9-9-9-9-9-9---------|
A|-7-7-7-7/8-8-8-8-0-6-6-6-6-0-7-7-7-7-7-7---------|
E|-5-5-5-5/6-6-6-6---------------------------------|


e|------------------------------|---------------------------|
b|------------------------------|---------------------------|
G|------------------------------|---------------------------|
D|---------5-5-------------5-5--|---------5-5---------5-5---|
A|---------3-3-------------3-3--|---------3-3---------3-3---|
E|-0-0-0-0---------0-0-0-0------|-0-0-0-0-----0-0-0-0-------|
                                  -------     -------
                                    PM          PM
Tap to rate this tab
# A B C D E F G H I J K L M N O P Q R S T U V W X Y Z