Song name
# A B C D E F G H I J K L M N O P Q R S T U V W X Y Z

Nirvana - The Money Will Roll Right In tab

song: the money will roll right in
band: nirvana
original band: fear
album: live at reading
tabbed by: brendan

please rate and/or comment!

tuning: EADGBe

intro/verse
|-----------------||
|-----------------||
|-----------------||
|-----------------||(x16)
|-----------------||
|-0-0-0-0-0-2-3-4-||

chorus
|-----------------------------------------------------------------||
|-----------------------------------------------------------------||
|---------------------------------4-4-4-4-4-4-4-4-3-3-3-3---------||
|-3-3-3-3-3-3-3-3-3-3-3-3-3-3-3-3-4-4-4-4-4-4-4-4-3-3-3-3-3-3-3-3-||
|-3-3-3-3-3-3-3-3-3-3-3-3-3-3-3-3-2-2-2-2-2-2-2-2-1-1-1-1-3-3-3-3-||
|-1-1-1-1-1-1-1-1-1-1-1-1-1-1-1-1-------------------------1-1-1-1-||

verse
|-----------------||
|-----------------||
|-----------------||
|-----------------||(x12)
|-----------------||
|-0-0-0-0-0-2-3-4-||

chorus
|-----------------------------------------------------------------||
|-----------------------------------------------------------------||
|---------------------------------4-4-4-4-4-4-4-4-3-3-3-3---------||
|-3-3-3-3-3-3-3-3-3-3-3-3-3-3-3-3-4-4-4-4-4-4-4-4-3-3-3-3-3-3-3-3-||
|-3-3-3-3-3-3-3-3-3-3-3-3-3-3-3-3-2-2-2-2-2-2-2-2-1-1-1-1-3-3-3-3-||
|-1-1-1-1-1-1-1-1-1-1-1-1-1-1-1-1-------------------------1-1-1-1-||

intro riff
|-----------------||
|-----------------||
|-----------------||
|-----------------||(x4)
|-----------------||
|-0-0-0-0-0-2-3-4-||

solo
for the solo you just improvise, thats what kurt does for the solo on the "Live at Reading" cd

chorus
|-----------------------------------------------------------------||
|-----------------------------------------------------------------||
|---------------------------------4-4-4-4-4-4-4-4-3-3-3-3---------||
|-3-3-3-3-3-3-3-3-3-3-3-3-3-3-3-3-4-4-4-4-4-4-4-4-3-3-3-3-3-3-3-3-||
|-3-3-3-3-3-3-3-3-3-3-3-3-3-3-3-3-2-2-2-2-2-2-2-2-1-1-1-1-3-3-3-3-||
|-1-1-1-1-1-1-1-1-1-1-1-1-1-1-1-1-------------------------1-1-1-1-||

verse
|-----------------||
|-----------------||
|-----------------||
|-----------------||(x12)
|-----------------||
|-0-0-0-0-0-2-3-4-||

chorus
|-----------------------------------------------------------------||
|-----------------------------------------------------------------||
|---------------------------------4-4-4-4-4-4-4-4-3-3-3-3---------||
|-3-3-3-3-3-3-3-3-3-3-3-3-3-3-3-3-4-4-4-4-4-4-4-4-3-3-3-3-3-3-3-3-||
|-3-3-3-3-3-3-3-3-3-3-3-3-3-3-3-3-2-2-2-2-2-2-2-2-1-1-1-1-3-3-3-3-||
|-1-1-1-1-1-1-1-1-1-1-1-1-1-1-1-1-------------------------1-1-1-1-||

end

lyrics:
im going to hollywood
because i am so good
you know how i feel
and ill get to fuck brooke shields

ill just sit and grin
the money will roll right in

im gonna be a star
im going to have a car
and youll have to admit
ill be
rich as shit

and ill just sit and grin
the money will roll right in

and ill just sit and grin 
the money will roll right in

i would give you some
if you only would have treated me nice
youll do as you did 
and youll feel 
pretty stupid

ill just sit and grin
the money will roll right in
Tap to rate this tab
# A B C D E F G H I J K L M N O P Q R S T U V W X Y Z