Song name
# A B C D E F G H I J K L M N O P Q R S T U V W X Y Z

Nirvana - Son Of A Gun tab

E---------------------------------------------------
      B---------------------------------------------------
      G----------------2--2-------------------------------
      D--2--2----------0--0-------------------------------
      A--0--0---2--2----------2--2------------------------
      E---------0--0----------0--0------------------------
           Up Up Up And Down Turn Turn Turn around........      
      
      
      E---------------------------------------------------
      B---------------------------------------------------
      G---------------------------------------------------
      D---------------------------5--5--5--5--5--5--5--5--
      A--5--5--5--5--5--5--5--5---3--3--3--3--3--3--3--3--      
      E--3--3--3--3--3--3--3--3---------------------------
          Sun shines in the bedroom.........


      E---------------------------------------------------
      B---------------------------------------------------
      G---------------------------------------------------
      D--7--7--7--7--7--7--7--7---5--5--5--5--5--5--5--5--
      A--5--5--5--5--5--5--5--5---3--3--3--3--3--3--3--3--
      E--------------------------------------------------- 
         ........when we play

{play this again for "the raining always starts when you go away"}

  
      E----------------------------------------------------
      B----------------------------------------------------
      G----------------------------------------------------
      D------------------------------7--7--7--7--7--7--7--7
      A--5--5--5--5--5--5--5--5--5---5--5--5--5--5--5--5--5
      E--3--3--3--3--3--3--3--3--3-------------------------
       *Play twice
         

      E----------------------------------------------------
      B----------------------------------------------------
      G----------------------------------------------------
      D------------------------------9--9--9--9--9--9--9--9
      A--7--7--7--7--7--7--7--7--7---7--7--7--7--7--7--7--7
      E--5--5--5--5--5--5--5--5--5-------------------------
       *Pay twice
Tap to rate this tab
# A B C D E F G H I J K L M N O P Q R S T U V W X Y Z