Song name
# A B C D E F G H I J K L M N O P Q R S T U V W X Y Z

Nirvana - All Apologies tab

This Is My Little Interpretation Of One Of My Favorite Nirvana Songs. I've Seen A lot Of Tabs That Are Kind Of Off So, I Decided To Do My Own.

e--------------------------------------------
B--------------------------------------------
G--------------------------------------------
D--------------------------------------------
A----9--10--9---12--12--10--9-----------------
E-0------------------------------------------


e--------------------------------------------
B--------------------------------------------
G--------------------------------------------
D---------------12--12--10--9----------------
A----9--10--9--------------------------------
E-0------------------------------------------


           Play 10x Then...


e--------------------------------------------
B--------------------------------------------
G--------------------------------------------
D--5--5-5--5-5-0--5--5-5--5-5-0--------------
A--5--5-5--5-5-0--5--5-5--5-5-0--------------
E--5--5-5--5-5-0--5--5-5--5-5-0--------------

             Play That Until "Married..."
                       Then

e--------------------------------------------
B--------------------------------------------
G----2----2-2---2----2-2---------------------
D----2-2--------2-2--------------------------
A---0---------0------------------------------
E--------------------------------------------

Repeat The Intro, And Chorus(2x)
Then The Intro About A Million Times.

Well That's It... Sorry For Any Mistakes (Especially to you Kurt!)
I'm Glad To See Some People Still Remember The Greatest Band!!!

R.I.P. Kurt

"Never believe that music was some instrument to go at the extreme in any cases where you can say yourself how many people around of you think that it is true but the imagination should be in your mind for the complete control" 

                                                         
                                                             -Kurt Cobain 



Goodbye...
Tap to rate this tab
 
# A B C D E F G H I J K L M N O P Q R S T U V W X Y Z