Song name
# A B C D E F G H I J K L M N O P Q R S T U V W X Y Z

Nirvana - Bambi Slaughter tab

Nirvana - Bambi Slaughter
Tabbed By: Khafka
EMail: nisse.c@chello.se


E:---------------------------------------------------------|
B:---------------------------------------------------------|
G:---------------------------------------------------------|
D:---------------------------------------------------------|
A:--0-0-0--3-3-3--8-8-8-7-7-7------------------------------|
E:-----------------------------0-0-0--3-3-3--8-8-8--7-7-7--|

Chorus:

--- --- --- ---
--- --- --- ---   
--- --- --- ---
-9- -7- -5- -3-
-9- -7- -5- -3-
-7- -5- -3- -1-
Tap to rate this tab
# A B C D E F G H I J K L M N O P Q R S T U V W X Y Z