Song name
# A B C D E F G H I J K L M N O P Q R S T U V W X Y Z

No Doubt - Sunday Morning tab

Bass line on guitar
(Played only by bass in beginning)
e|------------------------|
G|------------------------|
B|------------------------| Repeat until first verse starts
D|------------------------|
A|---2-2---0-3-4--2-4-2---|
E|0-0---3-3------------4--|
Harmonics (But the last note isn't a Harmonic)
After bass line plays twice play this
e|--12--------------------16|
B|12------------------12----|
G|--------------------------|
D|--------------------------|
A|--------------------------|
E|--------------------------|
Right after last note, play this
e|------------------------------------------|
B|9-9-9-9--9--9--9--9---9-9-9-9--9--9--9--9-|
G|9-9-9-9--9--9--9--9---9-9-9-9--9--9--9--9-| Play 2 times total
D|9-9-9-9--11-11-11-11--9-9-9-9--11-11-11-11| (Until verse starts)
A|------------------------------------------|
E|------------------------------------------|

When verse starts, slow it down
e|---------------|
B|9---9---9----9-| Play 4 times total
G|9---9---9----9-|
D|9---9---11---11|
A|---------------|
E|---------------|
After you're done repeating that, immediately play this
e|---------|
B|---------|
G|---------|
D|2-2-2-2-6|
A|0-0-0-0-4|
E|---------|
Right after play this w/ bass line
e|------------------------|
B|------------------------|
G|------------------------| Play 2 times total
D|------------------------|
A|---2-2---0-3-4--2-4-2---|
E|0-0---3-3------------4--|
While lead guitar plays w/ bass line, rhythm guitar plays a simple E chord

"I'd trade you places any day" is when you continue
e|---------------|
B|9---9---9----9-| Play 4 times total
G|9---9---9----9-|
D|9---9---11---11|
A|---------------|
E|---------------|
Play this after
e|---------|
B|---------|
G|---------|
D|2-2-2-2-6|
A|0-0-0-0-4|
E|---------|
Lead guitar plays w/ bass line
e|------------------------|
B|------------------------|
G|------------------------| Play 2 times total
D|------------------------|
A|---2-2---0-3-4--2-4-2---|
E|0-0---3-3------------4--|
While lead guitar plays w/ bass line, rhythm guitar plays a simple E chord

Bridge
e|----------------|
B|----------------|
G|4--6--4--6--4--6|
D|5--7--5--7--5--7|
A|----------------|
E|----------------|

Chorus
e|--------------------------------5-5-5-5|
B|9--9--9--9--9-9-9-9-10-10-10-10-5-5-5-5|
G|9--9--9--9--9-9-9-9-11-11-11-11-6-6-6-6| Play 2 times total
D|11-11-11-11-9-9-9-9-11-11-11-11-7-7-7-7| (2nd time lead guitar skips last 
A|--------------------9--9--9--9--7-7-7-7| 4 notes)
E|--------------------------------5-5-5-5|
After playing that twice, lead guitar plays this
e|-----------------------------|
B|-----5----------------5------|
G|----------6--------------6---| Play 3 times total
D|---7--------7------6--------6|
A|0---------------4------------|
E|-----------------------------|
After lead guitar goes back to bass line
e|------------------------|
B|------------------------|
G|------------------------| Play 2 times total
D|------------------------|
A|---2-2---0-3-4--2-4-2---|
E|0-0---3-3------------4--|
Then after playing that twice switch to this 
e|------------------2-1|
B|5-5-4-4-2-2-0-2-0----|
G|---------------------| Play 2 times total
D|---------------------|
A|---------------------|
E|---------------------|
Go Back to verse notes but faster the fourth time
e|------------------------------------------------------------------------|
B|9---9---9----9----9---9---9----9----9---9---9----9---999999-9-9-9-9-9-9-|
G|9---9---9----9----9---9---9----9----9---9---9----9---999999-9-9-9-9-9-9-|
D|9---9---11---11---9---9---11---11---9---9---11---11--999999-111111111111|
A|------------------------------------------------------------------------|
E|------------------------------------------------------------------------|
Play this right after
e|---------|
B|---------|
G|---------|
D|2-2-2-2-6|
A|0-0-0-0-4|
E|---------|

Lead guitar plays w/ bass line
e|------------------------|
B|------------------------|
G|------------------------| Play 2 times total
D|------------------------|
A|---2-2---0-3-4--2-4-2---|
E|0-0---3-3------------4--|
While lead guitar plays w/ bass line, rhythm guitar plays a simple E chord

Bridge
e|----------------|
B|----------------|
G|4--6--4--6--4--6|
D|5--7--5--7--5--7|
A|----------------|
E|----------------|

Chorus
e|--------------------------------5-5-5-5|
B|9--9--9--9--9-9-9-9-10-10-10-10-5-5-5-5|
G|9--9--9--9--9-9-9-9-11-11-11-11-6-6-6-6| Play 2 times total
D|11-11-11-11-9-9-9-9-11-11-11-11-7-7-7-7| (2nd time lead guitar skips last 
A|--------------------9--9--9--9--7-7-7-7| 4 notes)
E|--------------------------------5-5-5-5|
Next part
e|-----------------------------|
B|-----5----------------5------|
G|----------6--------------6---| Play 3 times total
D|---7--------7------6--------6|
A|0---------------4------------|
E|-----------------------------|

I didn't get the solo yet but when I do I'll edit this tab! Sorry

Chorus after the Solo
e|--------------------------------5-5-5-5|
B|9--9--9--9--9-9-9-9-10-10-10-10-5-5-5-5|
G|9--9--9--9--9-9-9-9-11-11-11-11-6-6-6-6| Play 2 times total
D|11-11-11-11-9-9-9-9-11-11-11-11-7-7-7-7| (2nd time lead guitar skips last 
A|--------------------9--9--9--9--7-7-7-7| 4 notes)
E|--------------------------------5-5-5-5|
Next part
e|-----------------------------|
B|-----5----------------5------|
G|----------6--------------6---| Play 3 times total
D|---7--------7------6--------6|
A|0---------------4------------|
E|-----------------------------|

After, lead guitar plays w/ bass line
e|------------------------|
B|------------------------|
G|------------------------| Play 2 times total
D|------------------------|
A|---2-2---0-3-4--2-4-2---|
E|0-0---3-3------------4--|

Then play this part after

e|------------------2-1|
B|5-5-4-4-2-2-0-2-0----|
G|---------------------| Play 6 times total
D|---------------------|
A|---------------------|
E|---------------------|
Then switch to this
e|--------------------------|
B|--------------------------|
G|--------------------------| Play a total of 4 times then end on open E
D|--------------------------|
A|----------2-4--4---4-2----|
E|0-0--0-2-4-------------4-2|
Ending Harmonics
e|12---------12----|
B|---------------12|
G|-----------------|
D|-----------------|
A|-----------------|
E|-----------------|
Tap to rate this tab
# A B C D E F G H I J K L M N O P Q R S T U V W X Y Z