Noa - Uri tab

                                      Uri                                       


Noa (Achinoam Nini), guitar: Gil Dor




     Intro                                                        
               G                 [F#m]           Fdim7            
     H         E  E   E   E      E     E   E  E  E      E  E  E   
E||-----------10--9----------|----------------9--7---------------|
B||------------8-----12--10--|---L--------12-----------10--9--7--|
G||------------0-------------|-------------------7---------------|
D||--------------------------|--------11-------------------------|
A||--------------------------|---9---------------8---------------|
E||--------------------------|-----------------------------------|


  F#m/E          D#-7b5             Dmaj9                       
  E     E  E  E  E      E  E  E     E     E  E  E  E  E  E  E   
-----------5---------------5-----|-----------------0-----------|
--L-----------7--L------------7--|--L--------7--------7-----0--|
--------6---------------6--------|--------------6--------6-----|
---------------------------------|--------7--------------------|
--7--------------6---------------|--5--------------------------|
---------------------------------|-----------------------------|


  C#m7                         Bm7          E9         
  E    E  E  E  E  E  E  E     E   E  E  E  Q    Q     
----------0-----0-----------|---------------7----L----|
--L----0-----0-----7-----0--|--L---------7--7----L----|
----------------------6-----|---------7-----7----L----|
----------------------------|------7-------------6----|
--4-------------------------|-------------------------|
----------------------------|--7------------0---------|


    Aadd9                         Em7                          
    E     E  E  E  E  E  E  E     E   E  E   E   E  E  E   E   
|------------------0-----------|------------10---L--------10--|
|------------0--------0--------|-----------------------8------|
|---------------6--------6-----|------------------------------|
|---------7-----------------7--|---------9----------9---------|
|---0--------------------------|------7-----------------------|
|------------------------------|--0---------------------------|


  Bm7            A/C#             Dmaj9                      Gmaj7           
  E   E  E   E   E   E  E   E     E     E  E  E  H           E     E  E  E   
-------------------------------|--------------5--9--------|-----------------|
------------10---L---------10--|-----------5--------------|--------3-----3--|
---------7--------------9------|-----------6--------------|-----------4-----|
------7--------------7---------|--------7-----------------|--------4--------|
-------------------------------|--5-----------------------|-----------------|
--7--------------9-------------|--------------------------|--3--------------|


  F#m          C#/F             F#m/E          D#-7b5           
  E   E  E  E  E    E  E  E     E     E  E  E  E      E  E  E   
-----------------------4-----|-----------5---------------5-----|
------------2-------2--------|--------------7--L------------7--|
---------2-------------------|--------6---------------6--------|
------4--------3----------3--|---------------------------------|
-----------------------------|--7--------------6---------------|
--2--------------------------|---------------------------------|


  Dmaj9                         C#m7          Bm7    E9    
  E     E  E  E  E  E  E  E     E    E  E  E  E   E  Q     
-----------------0-----------|----------4-----2---L--7----|
--L--------7--------7-----0--|-------------5--3---L--7----|
--------------6--------6-----|-------4--------2---L--7----|
--------7--------------------|----------------------------|
--5--------------------------|--4-------------2---L-------|
-----------------------------|--------------------0--L----|


  A                     Badd9/A               A           
  E  E  E  E   E  E  E  E          Q    E  E  E  E  Q     
------------------0--5--9-------|--L-------------5-------|
-----------0------------7-------|--L----------5-----5----|
--------2-----/6--------8-------|--L----------6----------|
-----2------------------9-------|--L---------------------|
--0---------------------0-------|--L----0--0--0----------|
--------------------------------|------------------------|


  A9sus4                         Bm7            A/C#           
  E      E  E  E  E  E  E  E     E   E  E   E   E   E  E   E   
------------------0-----------|-------------------------------|
---------------3-----3--------|------------10---L---------10--|
------------4-----------4-----|---------7--------------9------|
---------5--------------------|------7--------------7---------|
--0------------------------0--|-------------------------------|
------------------------------|--7--------------9-------------|


  Dmaj9                         Gmaj7             F#m          C#/F           
  E     E  E  E  E  E  E  E     E     E  E  E     E   E  E  E  E    E  E  E   
--------------5--L-----------|-----------------|-----------------------4-----|
-----------5--------7--------|--------3-----3--|---------2----------2--------|
-----------6-----------6-----|-----------4-----|------2----------------------|
--------7-----------------7--|--------4--------|------------4--3----------3--|
--5--------------------------|-----------------|-----------------------------|
-----------------------------|--3--------------|--2--------------------------|


  F#m/E          D#-7b5             Dmaj9                       
  E     E  E  E  E      E  E  E     E     E  E  E  E  E  E  E   
-----------5---------------5-----|-----------------0-----------|
--------------7--L------------7--|--L--------7--------7-----0--|
--------6---------------6--------|--------------6--------6-----|
---------------------------------|--------7--------------------|
--7--------------6---------------|--5--------------------------|
---------------------------------|-----------------------------|


                       slide                                 
  C#m7          Bm7    E9          A                         
  E    E  E  E  E   E  E     E     E  E  E  E   E  E  E  E   
----------4-----2---L--7-----9--|------------------0--5-----|
-------------5--3---L--7-----9--|-----------0---------------|
-------4--------2---L--7-----9--|--------2-----/6-----------|
--------------------------------|-----2---------------------|
--4-------------2---L-----------|--0---------------------0--|
--------------------0--L-----L--|---------------------------|


  G#-7b5          C#7             F#m          F#m(add9)/A           
  E      E  E  E  E   E  E  E     E   E  E  E  E           E  E  E   
-------------------------------|---------5--4--L--------------2-----|
------------3------------------|---------------------------------2--|
------------4------------4--2--|--L---------------------------------|
---------4-----0------3--------|---------------------------4--------|
------------------4------------|------4--------0--------------------|
--4----------------------------|--2---------------------------------|


  G#-7b5          C#7             D           D#dim           
  E      E  E  E  E   E  E  E     E  E  E  E  E     E  E  E   
-------------------------------|--------2--------------2-----|
------------3--2--L------------|-----------------------------|
------------4------------4--2--|--L--2--------------2--------|
---------4------------3--------|--0--------0--1-----------1--|
------------------4------------|-----------------------------|
--4----------------------------|-----------------------------|


  A/E          Fdim7             F#m7          D#-7b5          
                                      |--3--|                  
  E   E  E  E  E     E  E  E     Q    E  E  E  E.     S E  E   
---------5--------------4-----|--5-------------2------2-------|
------2-----------------3-----|--5-------------2--------------|
---------------------4--------|--6-------------2--------2-----|
--2---------2--3-----------3--|--4----4--3--2--1-----------1--|
------------------------------|-------------------------------|
------------------------------|-------------------------------|


           A/E                E9sus4                             
                              |----3----|  |--3--|               
  E  E  E  E   E  E  E  E     E      E  E  E  E  E   H           
---------------5-----------|---------------------7--12---------||
-----------5------5--------|------------------7----------------||
--------6------------6-----|---------------7-------------------||
---------------------------|------------7----------------------||
-----7------------------7--|---------7-------------------------||
--0------------------------|--0--------------------------------||


           A/E                G6                   F#m  
  E  E  E  E   E  E  E  E     E  E  E  E  E  E  E  E    
---------------5-----------|--------------0------------|
-----------5------5--------|--------0-----3--2--0------|
--------6------------------|--------------0--------2---|
---------------------------|-----2-----2---------------|
-----7---------------------|---------------------------|
--0------------------0--2--|--3-----------3------------|


                             C#/F                       
  E  E  E  E  E  E  E  E     E    E  E  E  E  E  E  E   
-----2--2--2--L--2--2--2--|-------4--4--4--L--4--4--4--|
-----2--2--2--L--2--2--2--|-------2--2--2--L--2--2--2--|
--L--2--2--2--L--2--2--2--|----------------------------|
--------------4-----------|--3-------------3-----------|
--------------------------|----------------------------|
--2-----------------------|----------------------------|


  F#m/E                         D#-7b5                       
  E     E  E  E  E  E  E  E     E      E  E  E  E  E  E  E   
--------5--5--5--L--5--5--5--|--L------5--5--5--L--5--5--5--|
--------7--7--7--L--7--7--7--|--L------7--7--7--L--7--7--7--|
--------6--6--6--L--6--6--6--|--L------6--6--6--L--6--6--6--|
-----------------------------|------------------------------|
--7--------------7-----------|--6---------------6-----------|
-----------------------------|------------------------------|


  Dmaj9                         C#m7                       
  E     E  E  E  E  E  E  E     E    E  E  E  E  E  E  E   
-----------------0-----------|----------0-----0-----------|
-----------7--------7-----0--|-------0-----0-----7-----0--|
--------------6--------6-----|----------------------6-----|
--------7--------------------|----------------------------|
--5--------------------------|--4-------------------------|
-----------------------------|----------------------------|


  Bm7          E9           Aadd9                       
  E   E  E  E  Q    Q       E     E  E  E  E  E  E  E   
---------------7---------|-----------------0-----------|
--L---------7--7---------|-----------0--------0--------|
---------7-----7---------|--------------6--------6-----|
------7-------------6----|--------7-----------------7--|
-------------------------|--0--------------------------|
--7------------0---------|-----------------------------|


  Em7                            Bm7            A/C#           
  E   E  E   E   E  E  E   E     E   E  E   E   E   E  E   E   
------------10---L--------10--|-------------------------------|
-----------------------8------|------------10---L---------10--|
------------------------------|---------7--------------9------|
---------9----------9---------|------7--------------7---------|
------7-----------------------|-------------------------------|
--0---------------------------|--7--------------9-------------|


  Dmaj9                      Gmaj7             F#m          C#/F           
  E     E  E  E  H           E     E  E  E     E   E  E  E  E    E  E  E   
--------------5--9--------|-----------------|-----------------------4-----|
-----------5--------------|--------3-----3--|------------2-------2--------|
-----------6--------------|-----------4-----|---------2-------------------|
--------7-----------------|--------4--------|------4--------3----------3--|
--5-----------------------|-----------------|-----------------------------|
--------------------------|--3--------------|--2--------------------------|


  F#m/E          D#-7b5             Dmaj9                       
  E     E  E  E  E      E  E  E     E     E  E  E  E  E  E  E   
-----------5---------------5-----|-----------------0-----------|
--------------7--L------------7--|--L--------7--------7-----0--|
--------6---------------6--------|--------------6--------6-----|
---------------------------------|--------7--------------------|
--7--------------6---------------|--5--------------------------|
---------------------------------|-----------------------------|


  C#m7          Bm7    E9                     F#m7             
                                                     |--3--|   
  E    E  E  E  E   E  Q       E   E   E  E   E   E  E  E  E   
----------4-----2---L--7----|---------------------------------|
-------------5--3---L--7----|---------10--9--10---------------|
-------4--------2---L--7----|-----------------9---9-----------|
----------------------------|-----11---------11---------------|
--4-------------2---L-------|--8--------------9------9--8--7--|
--------------------0--L----|---------------------------------|


  D#-7b5                         A/E                       
  E      E  E  E  E  E  E  E     E   E  E  E  E  E  E  E   
------------------5-----------|---------------5-----------|
---------------7-----7--------|------------5-----5--------|
------------6-----------6-----|---------6-----------6-----|
---------7--------------------|---------------------------|
--6------------------------6--|------7-----------------7--|
------------------------------|--0------------------------|


  E9sus4                          A                      
  E      E  E  E   H           E  E  E  E  E  E   E  E   
---------------7--12--------|-----------------0------0--|
------------7---------------|-----------0--------10-----|
------------7---------------|--------2-----6------------|
------------7---------------|-----2---------------------|
---------7------------------|--0------------------------|
--0-------------------------|---------------------------|


   E  E   E  E   H          
------0------0--17--------||
--12-----14-----17--------||
--------------------------||
--------------------------||
-----------------0--------||
--------------------------||




Duration Legend
---------------
W - whole
H - half
Q - quarter
E - 8th
S - 16th
T - 32nd
X - 64th
. - note dotted
|-n-|  - n-tuplets


Tablature Legend
----------------
L - tied note
x - dead note
g - grace note
(n) - ghost note
> - accentuded note
NH - natural harmonic
AH - artificial harmonic
TH - tapped harmonic
SH - semi harmonic
PH - pitch harmonic
h - hammer on
p - pull off
b - bend
br - bendRelease
pb - preBend
pbr - preBendRelease
brb - bendReleaseBend
\n/ - tremolo bar dip
\n - tremolo bar dive
-/n - tremolo bar Release up
/n\ - tremolo bar inverted dip
/n - tremolo bar return
-\n - tremolo bar Release down
S - shift slide
s - legato slide
/ -  slide into from below or out of upwards
\ -  slide into from above or out of downwards
~ - vibrato
W - wide vibrato
tr - trill
TP - tremolo picking
T - tapping
S - slap
P - pop
< - fade in
^ - brush up
v - brush down
Tap to rate this tab
 
# A B C D E F G H I J K L M N O P Q R S T U V W X Y Z