Song name
# A B C D E F G H I J K L M N O P Q R S T U V W X Y Z

Nobuo Uematsu - The Place Ill Return To Someday tab

This TAB is my variation of Nobuo Uematsu-sama's composition.
The melody for the main theme of Final Fantasy IX-The Place I'll Return To Someday, is 
a harmonic of Cmaj.
So without further adue(I think that's how it's spelled...),
grab your Guitar and let's begin...

Tuning: Half-Step Down (Eb, Ab, Db, Gb, Bb, eb)

|-----------------------7h8p7--------------------------------------------|
|---------------8-10----------10-8----10------------------------8-10-----|
|---/7----9-10---------------------------10-8/9-7-5-/7----9-10-----------|
|------------------------------------------------------------------------|
|------------------------------------------------------------------------|
|------------------------------------------------------------------------|

|---7h8p7------------7-----------------------------7h8p7-----------------|
|---------10-10-9h10---9h10----------------8-10----------10-8----10------|
|------------------------------/7----9-10---------------------------10---|
|------------------------------------------------------------------------|
|------------------------------------------------------------------------|
|------------------------------------------------------------------------|

|------------------------------------------------------------------------|
|------------------------------------10b---------------------------------|
|---8/9-7-5--/10----10-12-10-9-----------9~----12-10-9-9-10\6-7----7-----|
|------------------------------12-10-------------------------------------|
|------------------------------------------------------------------------|
|------------------------------------------------------------------------|

|---10-------10-8---7---------------------7/8----8-----------------------|
|---------10----------10-8-10-6h8-8/10-12--------------------------------|
|------------------------------------------------------------------------|
|------------------------------------------------------------------------|
|------------------------------------------------------------------------|
|------------------------------------------------------------------------|

|---10-------10-8---7----------------------------------------------------|
|---------10----------10-8-----------------------------------------------|
|--------------------------10-14-9---------------------------------------|
|----------------------------------10-10/12----12------------------------|
|------------------------------------------------------------------------|
|------------------------------------------------------------------------|

|---10-------10-8---7---------------------7/8----8-----------------------|
|---------10----------10-8-10-6h8-8/10-12--------------------------------|
|------------------------------------------------------------------------|
|------------------------------------------------------------------------|
|------------------------------------------------------------------------|
|------------------------------------------------------------------------|

|---10-------10-8---7----------------------------------------------------|
|---------10----------10-8-----------------------------------------------|
|--------------------------10----14----9---------------------------------|
|-------------------------------------------10----10/12~-----------------|
|------------------------------------------------------------------------|
|------------------------------------------------------------------------|
Tap to rate this tab
# A B C D E F G H I J K L M N O P Q R S T U V W X Y Z