Song name
# A B C D E F G H I J K L M N O P Q R S T U V W X Y Z

Nobuo Uematsu - Other World tab

Nobuo Uematsu (Final Fantasy) - Other World
Submitted By: Brent
EMail: redhotdog5@hotmail.com


Dropped D Tuning

Intro:

E|------10---------------------------10- ----------------------
B|------13b15----------10------------13b15---------------------
G|---------------------12b14v----------------------------------
D|-0-0----------0-0-------------0-0----------6-5-6-5-6-5-3-----
A|-0-0----------0-0-------------0-0----------6-5-6-5-6-5-3-----
D|-0-0----------0-0-------------0-0----------6-5-6-5-6-5-3-----

E|------10---------------------------10- ----------------------
B|------13b15----------10------------13b15---------------------
G|---------------------12b14v----------------------------------
D|-0-0----------0-0-------------0-0----------6-5-6-5-6-5-10-5--
A|-0-0----------0-0-------------0-0----------6-5-6-5-6-5-10-5--
D|-0-0----------0-0-------------0-0----------6-5-6-5-6-5-10-5--


Riff 1:
e|---------------------------------|---------------------------------
B|---------------------------------|---------------------------------
G|---------------------------------|---------------------------------
D|-----3p2-----5p3-----7---6p5---3-|-----3p2-----5p3-----7---6\3-----
A|-----3p2-----5p3-----7---6p5---3-|-----3p2-----5p3-----7---6\3-----
D|-0-0-3p2-0-0-5p3-0-0-7---6p5---3-|-0-0-3p2-0-0-5p3-0-0-7---6\3-----


Riff 2:
e|------------------------------------------------------------------
B|-----------------------------------------------------------vvv----
G|---------7---------------7---------------7---------------7--------
D|-0-0-7-------7p0-0-0-8-------8p0-0-0-7-------7p0-0-0-6------------
A|------------------------------------------------------------------
D|-------------------------------------------------------------------

e|-----------------------------------------------------------------
B|------------------------------------------------------------------
G|---------7---------------7---------------7---------------7--------
D|-0-0-7-------7p0-0-0-8-------8p0-0-0-9-------9p0-0-0-8-----9vvvv--
A|------------------------------------------------------------------
D|------------------------------------------------------------------

Solo Backing:
e|-------------------------------------
B|-------------------------------------
G|-----------------------------2vvvv---
D|-----3p2---5p3---3p2---5p3-----------
A|-----3p2---5p3---3p2---5p3-----------
D|-0-0-3p2-0-5p3-0-3p2-0-5p3-0--------- x2

e|---------------------------------------------------------------|
B|---------------------------------------------------------------|
G|-------------------------2---5---7-----5-----2-----------------|
D|-0-----3-----5-----6-----2---5---7-----5-----2-----6-----5---3-|
A|-0-----3-----5-----6-----0---3---5-----3-----0-----6-----5---3-|
D|-0-----3-----5-----6-------------------------------6-----5---3-|
Tap to rate this tab
 
# A B C D E F G H I J K L M N O P Q R S T U V W X Y Z