Song name
# A B C D E F G H I J K L M N O P Q R S T U V W X Y Z

Nobuo Uematsu - Breezy tab

e------2-------2-|------2------2-|------0-------0-|------3-------3-|
B----0-----0-----|----0----0-----|----0-----0-----|----0-----0-----|
G--2---------2---|--2--------2---|--0---------0---|--0---------0---|
D0---------------|0--------------|0---------------|0---------------|



e------2-------2-|------2-------2-|------0-------0-|3-----2-----0--|
B----0-----0-----|----0-----0-----|----0-----0-----|----3-----3----|
G--2---------2---|--2---------2---|--0---------0---|--4-----4-----4|
D0---------------|0---------------|0---------------|0-----0-----0--|



e------2-------2-|------232-----2-|------0-------0-|------3-----3--|
B----2-----2-----|----2-----2-----|----3-----3-----|--2-----2-----2|
G--2---------2---|--2---------2---|--0---------0---|----4-----4----|
D0---------------|0---------------|0---------------|0--------------|



e------2-------2-|5-----3-----2---|3-----2-----3---|5---------------|
B----2-----2-----|--2-------2---0-|----0-----0-----|2---------------|
G--2---------2---|----4---4-------|--0-----0-----0-|2---------------|
D0---------------|0---------------|2-----0-----0---|2---------------|



e2-----2-------2S|5-----5-------5S|7-----7-------7-|5-----5-------5-|
B--3-------3----S|--6-------6----S|--8-------8-----|--7-------7-----|
G----2-------2--S|----5-------5--S|----7-------7---|----7-------7---|
D0---------------|0---------------|0---------------|0---------------|


                                                     
e2-----2-------2S|5-----5-------5S|7-----7-------7-|5---------------|
B--3-------3----S|--6-------6----S|--8-------8-----|7----<7>--------|
G----2-------2--S|----5-------5--S|----7-------7---|7--------<7>----|
D0---------------|0---------------|0---------------|0------------<7>|



e------3---------|5-----3---------|------3-------3-|5-----3-------3-|
B----3-----3---3-|--3-------3---3-|----3-----3-----|--3-------3-----|
G--4---------4---|----4-------4---|--3---------3---|----3-------3---|
D0---------------|0---------------|0---------------|0---------------|



e------2-------2-|------2-------2-|------0---------|3---------------|
B----0-------0---|----0-------0---|----3-----3---3-|3---------------|
G--2-------2-----|--2-------2-----|--3---------3---|3---------------|
D0---------------|----------------|0---------------|0---------------|
Tap to rate this tab
 
# A B C D E F G H I J K L M N O P Q R S T U V W X Y Z