Song name
# A B C D E F G H I J K L M N O P Q R S T U V W X Y Z

Nobuo Uematsu - The Sight Of Spira tab

                     Final Fantasy X - The Sight of Spira                       


                                                                   Nobuo Uematsu
Pista 1 (Capo 3)



             Q    S S E  E  E  E  E     Q    E  E  E  S  S Q     
E||-------|-------2---------0--------|-------2-------------0----|
B||-------|-------3---3-----2--------|-------3--3----------2----|
G||-------|-----------4-----2--------|----------2----------0----|
D||-------|--------------------2--0--|--L-------------0h-2-2----|
A||-------|--2-----------0-----------|-------------0------------|
E||-------|--------------------------|--------------------------|


  E  E  E  Q    E  E  E     E  E  E  E   E  E  E  E   
--------2-------2-----2--|------------------0--------|
--------2-------2-----2--|---------------------0-----|
--------4-------4-----4--|-----------2S--4--------2--|
-----5-------------------|--------0------------------|
-------------------------|-----2---------------------|
--3--------2-------2-----|--0------------------------|


  Q    S S E  E  E  E   E     E  E  E  E  E  E   E   E   
-------2---------0-----/5--|--L--L--2--2-----0h--2p--0--|
-------3---3-----2---------|--------3--3-----2----------|
-----------4-----2---------|----------------------------|
--------------------2---0--|-----0----------------------|
--2-----------0------------|--------------0-------------|
---------------------------|----------------------------|


  E  E  E  E   E  E  E  E     W                   H        E  E  E  E   
---------------------0--7--|--L----------------|--L-----------0--------|
--3---------------3--------|-------------------|-----------------0-----|
-----------0--/4--------4--|--L----------------|--L-----------------2--|
-----0--4------------------|-------------------|-----------------------|
---------------------------|-------------------|-----------------------|
--0------------------------|-------------------|-----------------------|


  E  E  E  E  E  E  E  E     E  E  E  E  E  S  S Q     
-----------------------0--|--2-----3--2--0------------|
--0-----2--3--2-----3-----|-----3---------------------|
--------------------------|----------------------0----|
-----4-----------2--------|--0--------------0h-2-2----|
--2-----------0-----------|--------------0------------|
--------------------------|---------------------------|


  E  E  E  E  E  E  Q       E  E  E  E  E  E  S S E   
--2-----0----------------|---------------------------|
-----------3--2----------|--3-----2--0---------------|
-----------------2-------|--------------2------------|
-----5--------------4----|-----4-----------2---------|
-------------------------|--2-----------0-----4-2-0--|
--3-----------2----------|---------------------------|


  E  E  E  E  E  E  E  E     E  E  E  E  E  S  S Q     
-----------------------0--|--2-----3--2--0------------|
--0-----2--3--2-----3-----|-----3---------------------|
--------------------------|----------------------0----|
-----4-----------2--------|--0--------------0h-2-2----|
--2-----------0-----------|--------------0------------|
--------------------------|---------------------------|


                             ^      ^                 
  E  E  E  E  E  E  E  E     E   E  Q    E  E  E  E   
--2-----0-----------------|-----------------0--------|
-----------3--2-----------|--------------------0-----|
--------------------2-----|--2s--4--4----L--------2--|
-----5-----------4-----4--|--0------0----L-----------|
--------------------------|--2s--4--4----L-----------|
--3-----------2-----------|--0------0----L-----------|


                             ^      ^                   ^                    
  E  E  E  E  E  E  E  E     E   E  Q    E  E  E  E     H        Q    E  E   
--2-----0-----------------|-----------------0--------|-------------------0--|
-----------3--2-----------|--------------------0-----|--0--------2----3-----|
--------------------2-----|--2s--4--4----L--------2--|--0-------------------|
-----5-----------4-----4--|--0------0----L-----------|--0-------------------|
--------------------------|--2s--4--4----L-----------|----------------------|
--3-----------2-----------|--0------0----L-----------|--0--------2----L--L--|


  ^         ^           ^          ^     ^        ^         ^           
  Q    Q    H           Q    E  E  E  E  E  E     Q    Q    Q    E  E   
--2----5----0--------|--2----0--------------0--|--2----5----0----------|
--3---------2--------|--0-------3--0--3--3-----|--3---------2----3--2--|
--2---------2--------|--0----------0-----2-----|--2---------2----------|
--0------------------|--0----------0-----2-----|--0--------------------|
------------0--------|-------------------0-----|------------0----------|
---------------------|-------------3-----------|-----------------------|


                            ^         ^           ^          ^     ^      
  E  E  E  E  Q    E  E     Q    Q    H           Q    E  E  E  E  E  E   
----------------------0--|--2----5----0--------|--2----0--------------0--|
--0----------------3-----|--3---------2--------|--0-------3--0--3--3-----|
--------0----------------|--2---------2--------|--0----------0-----2-----|
-----0-----0--0----2-----|--0------------------|--0----------0-----2-----|
--------------2----------|------------0--------|-------------------0-----|
--3----------------------|---------------------|-------------3-----------|


  ^         ^                                                               
  Q    Q    Q    Q       E  E  E  Q    E   E   E     E  E   Q    Q    Q     
--2----5----9----5----|--7------------------------|--------/7----5----3----|
--3---------7---------|-----------0---------------|--0---------------------|
--2---------6---------|--------0-------2s--4s--2--|--0-----/7----5----4----|
--0-------------------|-----0---------------------|--0---------------------|
------------0---------|---------------------------|------------------------|
----------------------|--3------------------------|--3---------------------|


  E  E  E  Q    Q    E     E  E   Q    Q    Q       E  E  Q    E  E   E   E   
--2---------------------|--------/5----2---------|----------------0h--2p--0--|
----------------2-------|--------/5----2----2----|-----3--3-------0h--3p--0--|
-----------2---------2--|------------------------|--4------------------------|
--------4---------------|-------------------4----|--4----------0-------------|
-----4------------------|------------------------|---------------------------|
--2---------------------|--2---------------------|--3------------------------|


   Q    Q    Q    Q       E  E  E   Q    Q    E      E  E  Q    Q    Q     
--/2----2----0---------|--0--2--------------------|-------------9----5----|
--/3----3----0----3----|--------------------------|--------7--------------|
---0-------------------|--------2s--6-------------|-----------------------|
------------------4----|-----------------7--------|-----------------------|
-----------------------|----------------------7s--|--9--------------------|
-----------------------|--2-----------------------|-----------------------|


  E  E  E  Q    Q    E     E  E  E  Q    Q    E     E  E  E  E  E  E  E  E   
--7---------------------|--2---------------------|-----------------------0--|
-----------0------------|----------------2-------|--0-----2--3--2-----3-----|
--------0-------0-------|-----------2---------2--|--------------------------|
-----0---------------0--|--------4---------------|-----4-----------2--------|
------------------------|-----4------------------|--2-----------0-----------|
--3---------------------|--2---------------------|--------------------------|


  E  E  E  E  E  S  S Q       E  E  E  E  E  E  Q     
--2-----3--2--0------------|--2-----0----------------|
-----3---------------------|-----------3--2----------|
----------------------0----|-----------------2-------|
--0--------------0h-2-2----|-----5--------------4----|
--------------0------------|-------------------------|
---------------------------|--3-----------2----------|


  E  E  E  E  E  E  S S E     E  E  E  E  E  E  E  E   
---------------------------|-----------------------0--|
--3-----2--0---------------|--0-----2--3--2-----3-----|
--------------2------------|--------------------------|
-----4-----------2---------|-----4-----------2--------|
--2-----------0-----4-2-0--|--2-----------0-----------|
---------------------------|--------------------------|


  E  E  E  E  E  S  S Q       E  E  E  E  E  E  E  E   
--2-----3--5--0------------|--2-----0-----------------|
-----3---------------------|-----------3--2-----------|
----------------------0----|--------------------2-----|
--0--------------0h-2-2----|-----5-----------4-----4--|
--------------0------------|--------------------------|
---------------------------|--3-----------2-----------|


  ^      ^                   ^          ^            ^      ^                 
  E   E  Q    E  E  E  E     Q    E  E  Q    Q       E   E  Q    E  E  E  E   
-----------------0--------|--2----0---------------|-----------------0--------|
--------------------0-----|--0-------3--2---------|--------------------0-----|
--2s--4--4----L--------2--|--0----------2----2----|--2s--4--4----L--------4--|
--0------0----L-----------|--0----------2---------|--0------0----L-----------|
--2s--4--4----L-----------|-------------0---------|--2s--4--4----L-----------|
--0------0----L-----------|-----------------------|--0------0----L-----------|


                                   ^                                      
  |----3----|    |----3----|                                              
  Q    Q    Q    Q    Q    Q       W                   W                  
--------------------------------|--7----------------|--L----------------||
--------------------------------|--0----------------|--L----------------||
--------------------------------|--4----------------|--L----------------||
--0-----------------------------|--0----------------|--L----------------||
-------4----L----L----L----L----|--4----------------|--L----------------||
--------------------------------|--3----------------|--L----------------||




Duration Legend
---------------
W - whole
H - half
Q - quarter
E - 8th
S - 16th
T - 32nd
X - 64th
. - note dotted
|-n-|  - n-tuplets


Tablature Legend
----------------
L - tied note
x - dead note
g - grace note
(n) - ghost note
> - accentuded note
NH - natural harmonic
AH - artificial harmonic
TH - tapped harmonic
SH - semi harmonic
PH - pitch harmonic
h - hammer on
p - pull off
b - bend
br - bendRelease
pb - preBend
pbr - preBendRelease
brb - bendReleaseBend
\n/ - tremolo bar dip
\n - tremolo bar dive
-/n - tremolo bar Release up
/n\ - tremolo bar inverted dip
/n - tremolo bar return
-\n - tremolo bar Release down
S - shift slide
s - legato slide
/ -  slide into from below or out of upwards
\ -  slide into from above or out of downwards
~ - vibrato
W - wide vibrato
tr - trill
TP - tremolo picking
T - tapping
S - slap
P - pop
< - fade in
^ - brush up
v - brush down
Tap to rate this tab
# A B C D E F G H I J K L M N O P Q R S T U V W X Y Z