Song name
# A B C D E F G H I J K L M N O P Q R S T U V W X Y Z

Nodes Of Ranvier - Relentless tab

Help us improve GuitareTab! Take a short survey!
I only tabbed out the intro for now because after going back and listening to the song, 
had some parts throughout the rest wrong.  But this will give you the general idea.  
an awesome song and I'm surprised no one has posted it yet.  Enjoy!


Tabbed by: Chris
Email: xBurningxInnocencex@hotmail.com

Tuning: Standard C  (Take E-A-D-G-B-E and tune each string down one and a half steps).


7/4

Guitar 1
|-------------------------------------------------------|
|-------------------------------------------------------| x6
|-------------------------------------------------------|
|-------------------------------------------------------|
|----7-7h8--7-7-7h8---7-7-7h8---------------------------|
|-0-0------0--------0---------5--5-6-3--3-5-------------|
    .      .        .
Guitar 1 makes a weird noise at the very beginning which sounds like a pickscrape but I 
be sure so I'll let you interpret that however you want.

Gutiar 2
|-------------------------------------------------------|
|-------------------------------------------------------| x2
|-------------------------------------------------------|
|-------------------------------------------------------|
|----7-7h8--7-7-7h8---7-7-7h8---------------------------|
|-0-0------0--------0---------5--5-6-3--3-5-------------|
    .      .        .

Gutiar 2
|-------------------------------------------------------|
|-------------------------------------------------------| x2
|---------------------9-9-9h10--------------------------|
|-----------9-9-9h10------------------------------------|
|----7-7h8----------------------------------------------|
|-0-0------0--------0----------5--5-6-3--3-5------------|
    .      .        .

Well that's the intro to the song.  I'll post the rest soon, sorry this is all I have 
now.
Related for Relentless tab