Guitaretab - guitar tabs
Song name
# A B C D E F G H I J K L M N O P Q R S T U V W X Y Z

Nodes Of Ranvier - Its Gunna Be Ok tab

Tabbed by: Tom
Email:deadbraincels@hotmail.com

***Tuning: Drop E, everything else normal***

E|----------------------------------------------------------------------|
B|----------------------------------------------------------------------|
G|----------------------------------------------------------------------|
D|-------6-7-----6-4-----2-4-----2-0-----9-11-----9-7-----4-6-----4-2---|
A|-----4-------4-------0-------0-------7--------7-------2-------2-------|
D|---4-------4-------0-------0-------7--------7-------2-------2---------|


*Distortion*
E|------------------------------------------------------------------|
B|------------------------------------------------------------------|
G|------------------------------------------------------------------|
D|---------------------------------4--------------------------------|
A|---4-/7-5---4p2h4---2p0h2--------4-/7-5---7h9p7---7h9/11--12\11---|
D|----------------------------7-6--4--------------------------------|
[ Tab from: http://www.guitaretab.com/n/nodes-of-ranvier/55246.html ]
E|----------------------------------------------------------------------------|
B|----------------------------------------------------------------------------|
G|----------------------------------------------------------------------------|
D|----------------------------------------------------------------------------|
A|12-11-12-7-4-7-6-4--12-11-12-7-4-7-6-4--12-11-12-7-4-7-6-4-11-9-11-7-4-7-64-|
D|----------------------------------------------------------------------------|

E|--------------------------------------------------------------------|
B|--------------------------------------------------------------------|
G|--------------------------------------------------------------------|
D|--------------------------------------------------------------------|
A|---12-11-12-7-4-7-6-4--12-11-12-14-17-16-14-12-12-11-12-7-4-7-6-4---|
D|--------------------------------------------------------------------|

E|----------------------------------------------------------------------------|
B|------------*---------------------------------------------------------------|
G|------7-----6---------------------------------------------------------------|
D|----5-----4----------4-5-----4-2-----7-9-----7-5-----2-4-----2-0-----4-5/7--|
A|--5----------------2-------2-------5-------5-------0-------0-------2-----5--|
D|5-----4--(Pinch)-2-------2-------5-------5-------0-------0-------2----------|


such a good song :) enjoy
Related for Its Gunna Be Ok tab
×
Its Gunna Be Ok