Song name
# A B C D E F G H I J K L M N O P Q R S T U V W X Y Z

Nofx - Philthy Phil Philanthropist tab

-------------------------------------------------------------------------------
		     Philthy Phil Philanthropist - NOFX
-------------------------------------------------------------------------------
Tabbed by: raminile
Email: offspring248@hotmail.com

I saw a lot of people had requested it so I thought why not?
Some things may be a bit off.

Tuning: standard

Intro: Left Guitar
1
e|-----------------------------------|
B|-----------------------------------|
G|-----------------------------------|
D|-------------------------5-55-5555-|
A|-5-5-5555-55-5555-3-3-3333-33-3333-|
E|-3-3-3333-33-3333-1-1-111----------|

2
e|-----------------------------------|
B|-----------------------------------|
G|-----------------------------------|
D|-------------------------5-55-x-x--|
A|-5-5-5555-55-5555-3-3-3333-33-x-x--|
E|-3-3-3333-33-3333-1-1-111----------|

Then both guitars play intro (1) x2, LG keeps playing 2 more times while 

Right Guitar plays: Main Riff
1
e|----------------------------------|
B|----------------------------------|
G|----------------------------------|
D|----------------------------------|
A|-5-5-5555-55-3-2-3-3-320----------|
E|------------------------3-33-3333-|

2
e|------------------------------------|
B|------------------------------------|
G|------------------------------------|
D|-----------------5-5-555-7-7-4444-5-|
A|-5-5-5555-55-3-2--------------------|
E|------------------------------------|


Left Guitar: During main riff
1
e|-----------------------------------|
B|-----------------------------------|
G|-----------------------------------|
D|-------------------------5-55-5555-|
A|-5-5-5555-55-5555-3-3-3333-33-3333-|
E|-3-3-3333-33-3333-1-1-111----------|

2
e|-------------------------------------|
B|-------------------------------------|
G|-------------------------------------|
D|------------------5-5-5557-77-7777---|
A|-5-5-5555-55-5555-3-3-3335-55-5555-5-|
E|-3-3-3333-33-3333------------------3-|

Awsome xylophone riff:
e|---------------------------------|
B|---8----8----8-----5---------5-5-|
G|-----7----7----7-----5----7------|
D|-5-----5----5----------5----7----|
A|-----------------3------5--------|
E|---------------------------------| x4

Right Guitar: During xylophone riff:
   Blagh!  BlahBlah
e|---------3---3---2-2-2-2---|
B|---------3---3---3-3-3-3---|
G|---------------------------|
D|-5-------------------------|
A|-5-------------------------|
E|-3-------------------------|

Verse:
Right Guitar
		    .Possible chord change here
e|-x3x3x3x3x3x3x3x3x3x3x3x3x2x2x2x2-|
B|-x3x3x3x3x3x3x3x3x3x3x3x3x3x3x3x3-| Play 12 G's then 4 B's
G|----------------------------------|
D|----------------------------------|
A|----------------------------------|
E|----------------------------------|

   Alcohol..
e|-3---1---8---8---|
B|-3---1---8---8---|
G|-4---2---9---8---|
D|-5---3---10--10--|
A|-----------------|
E|-----------------|

Will make.. (This space is just make the chord change more visible)
e|---x3x3x3x3-x1x1x1x1-x3x3x3x3x3x3x3x3-|
B|---x3x3x3x3-x1x1x1x1-x5x5x5x5x5x5x5x5-|
G|---x4x4x4x4-x2x2x2x2-x5x5x5x5x5x5x5x5-|
D|---x5x5x5x5-x3x3x3x3------------------|
A|--------------------------------------|
E|--------------------------------------|

--Pre chorus--

Both Guitars:
All right..		    ground..
e|-----------------------------------|
B|-----------------------------------|
G|----------5---777777xx-------------|
D|--5---2---5---777777xx-5-5-5-5-xxx-|
A|--5---2---3---555555xx-5-5-5-5-xxx-|
E|--3---0----------------3-3-3-3-xxx-|
    x16 x16 x8

Right Guitar:
1
e|----------------------------------|
B|----------------------------------|
G|---------5---777777xx-------------|
D|-5---7---5---777777xx-5-5-5-5-xxx-|
A|-5---7---3---555555xx-5-5-5-5-xxx-|
E|-3---5----------------3-3-3-3-xxx-|
   x16 x16 x8

Left Guitar:
1
e|-----------------------------------|
B|-----------------------------------|
G|-7---6-76-5---777777xx-------------|
D|--------------------xx-5-5-5-5-xxx-|
A|-5---4-54-3---555555xx-5-5-5-5-xxx-|
E|-----------------------3-3-3-3-xxx-|
   x16 x12  x8

--Chorus--

philthy phil
e|------------------------|
B|------------------------|
G|-----7-------5-554-5-42-|
D|-7---7---5---5-554-5-42-|
A|-7---5---5---3-332-3-20-|
E|-5-------3--------------|
   x16 x16 x16 x8       .Next part starts here

Right Guitar:
1
e|--------------------------------------------|
B|--------------------------------------------|
G|-----7--------10------10------10------1012\-|
D|-7---7---5-5-510-555-510-555-510-555-51012\-|
A|-7---5---5-5-58--555-58--555-58--555-58-10\-|
E|-5-------3-3-3---333-3---333-3---333-3------|
   x16 x16 

Left Guitar:
1
e|-----------------------------------------|
B|-----------------------------------------|
G|-----7-----------------------------------|
D|-7---7---5-5-53-555-53-555-53-555-53-----|
A|-7---5---5-5-53-555-53-555-53-555-53-----|
E|-5-------3-3-31-333-31-333-31-333-31-10\-|
   x16 x16

Bass
Bass + xylophone

Back to verse

Pre chrous

Chorus (without ending slide)

--Break--
Right Guitar:
e|-xx55xx55xx55xx55-xx22xx22xx22xx22-xx33xx33xx33xx33-xx33xx33xx33xx33-|
B|-xx55xx55xx55xx55-xx33xx33xx33xx33-xx33xx33xx33xx33-xx11xx11xx11xx11-|
G|-xx55xx55xx55xx55----------------------------------------------------|
D|---------------------------------------------------------------------|
A|---------------------------------------------------------------------|
E|---------------------------------------------------------------------|

e|-xx55xx55xx55xx55-xx22xx22xx22xx22-|
B|-xx55xx55xx55xx55-xx33xx33xx33xx33-|
G|-xx55xx55xx55xx55------------------|
D|-----------------------------------|
A|-----------------------------------|
E|-----------------------------------|


Play intro again

BLAGH! :D
Tap to rate this tab
 
# A B C D E F G H I J K L M N O P Q R S T U V W X Y Z