Song name
# A B C D E F G H I J K L M N O P Q R S T U V W X Y Z

Nofx - Whoops I Odd tab

NOFX 
Whoops I Od'd

Intro
E|-----------------------------------------------------------|
B|-----------------------------------------------------------|
G|-------------------------------------------5-5-5-5-4-4-4-2~|
D|--0--0--0-10-10-12-12-12-0-0-0-7-7-9-9-9---x-x-x-x-x-x-x-x~|
A|-10-10-10-10-10-10-10-10-7-7-7-7-7-7-7-7---0-0-0-0-0-0-0-0~|
E|-----------------------------------------------------------|

Verse
E|----------------------------------------------------------------|
B|----------------------------------------------------------------|
G|-------------------------------------------5-5-5-5-4-4-4-2-2-2-2|
D|--0--0--0-10-10-12-12-12-0-0-0-7-7-9-9-9---x-x-x-x-x-x-x-x-x-x-x|
A|-10-10-10-10-10-10-10-10-7-7-7-7-7-7-7-7---0-0-0-0-0-0-0-0-0-0-0|
E|----------------------------------------------------------------|

Verse continued
E|----------------------------------------------|
B|----------------------------------------------|
G|----------------------------------------------|
D|--0--0--0--0--0-10-10-10-10-10--0--0--0--0--0-|
A|-10-10-10-10-10-10-10-10-10-10-10-10-10-10-10-|
E|----------------------------------------------|

"I Never Meant..."
E|----------------------------------------------------------|
B|----------------------------------------------------------|
G|----------------------------------------------------------|
D|------------------------------------------------9-9-5-5-5-|
A|-7-7-7-10-10-10-5-5-5-10-10-10-7-7-7-10-10-10---7-6-5-4-3-|
E|-5-5-5-8--8--8--3-3-3-10-10-10-5-5-5--8--8--8-------------|

Verse 2
E|----------------------------------------------------------------|
B|----------------------------------------------------------------|
G|-------------------------------------------5-5-5-5-4-4-4-2-2-2-2|
D|--0--0--0-10-10-12-12-12-0-0-0-7-7-9-9-9---x-x-x-x-x-x-x-x-x-x-x|
A|-10-10-10-10-10-10-10-10-7-7-7-7-7-7-7-7---0-0-0-0-0-0-0-0-0-0-0|
E|----------------------------------------------------------------|

Verse 2 Continued
E|----------------------------------------------|
B|----------------------------------------------|
G|----------------------------------------------|
D|--0--0--0--0--0-10-10-10-10-10--0--0--0--0--0-|
A|-10-10-10-10-10-10-10-10-10-10-10-10-10-10-10-|
E|----------------------------------------------|

E|----------------------------------------------------------|
B|----------------------------------------------------------|
G|----------------------------------------------------------|
D|------------------------------------------------9-9-5-5-5-|
A|-7-7-7-10-10-10-5-5-5-10-10-10-7-7-7-10-10-10---7-6-5-4-3-|
E|-5-5-5-8--8--8--3-3-3-10-10-10-5-5-5--8--8--8-------------|

Intro


Verse 3
E|----------------------------------------------------------------|
B|----------------------------------------------------------------|
G|-------------------------------------------5-5-5-5-4-4-4-2-2-2-2|
D|--0--0--0-10-10-12-12-12-0-0-0-7-7-9-9-9---x-x-x-x-x-x-x-x-x-x-x|
A|-10-10-10-10-10-10-10-10-7-7-7-7-7-7-7-7---0-0-0-0-0-0-0-0-0-0-0|
E|----------------------------------------------------------------|

Verse 3 Continued
E|----------------------------------------------|
B|----------------------------------------------|
G|----------------------------------------------|
D|--0--0--0--0--0-10-10-10-10-10--0--0--0--0--0-|
A|-10-10-10-10-10-10-10-10-10-10-10-10-10-10-10-|
E|----------------------------------------------|

Outro
E|--------------------------------------------------------0-0-0--3-|
B|--------------------------------------------------------1-1-1--4-|
G|--------------------------------------------------------0-0-0--5-|
D|-------------------9-9-5-5-5-5-5-5----------------------2-2-2--5-|
A|-7-7-7-10-10-10----7-6-5-4-3-3-3-3-7-7-7-10-10-10-5-5-5-3-3-3--3-|
E|-5-5-5-8--8--8---------------------5-5-5--8--8--8-3-3-3----------|

the strumming isnt right, you'll have to listen to the album to figure out
how it goes. other than that this tab is more or less right and way better
than the other versions on this site. enjoy. (pyr0911@hotmail.com)
Tap to rate this tab
# A B C D E F G H I J K L M N O P Q R S T U V W X Y Z