Song name
# A B C D E F G H I J K L M N O P Q R S T U V W X Y Z

Nofx - One Million Coasters tab

NOFX
Album: Coaster
Song: One Million Coasters


*INTRO*


Chords:
  C                      Dm       G                               Am       
Lead:
e|-------------------------------------------------------------------------|
B|15^(17)-15^(17)v-12-13----------12----------------12-13-15-15^-(17)-v-13~|
G|-----------------------14~------------------12-14------------------------|
D|-----------------------------------12-14-15------------------------------|
A|-------------------------------------------------------------------------|
E|-------------------------------------------------------------------------|

   F                              C      F           G
e|-------13--12-13-15-12-13-12-----------------------12/13-12--------------|
B|----13-----------------------13-----------------------------13-12-13-15--|
G|-12-----------------------------12--12-12h13-12--------------------------|
D|------------------------------------------------15-----------------------|
A|-------------------------------------------------------------------------|
E|-------------------------------------------------------------------------|




*VERSE*
(Played twice... I'll let you figure out the strum pattern)

   C   A   F   G
e|---------------------|
B|---------------------|
G|-5---2---------------|
D|-5---2---3---5-------|
A|-3---0---3---5-------|
E|---------1---3-------|




*CHORUS*

   C   Dm  G   Am        F   C   F   G   C   |(post chorus riff)
e|---------------------|---------------------|------------------|
B|-5---6-------1-------|-----5-----------1---|-1---1------------|
G|-5---7---4---2-------|-2---5---2---4---0---|-0---0------------|
D|-5---7---5---2-------|-3---5---3---5---2---|-3-2-2------------|
A|-3---5---5---0-------|-3---3---3---5---3---|-3---3------------|
E|---------3-----------|-1-------1---3-------|------------------|




*OUTRO*
(Electric)
Same exact chords as the intro

  C                                   Dm     G                  Am
e|----------------------------------------|---------------------12-13-15-12|
B|15^(17)-15^(17)-15^(17)v-13p12h13p12----|-----12------12-13-15-----------|
G|-------------------------------------14~|12h14---12h14-------------------|
D|----------------------------------------|--------------------------------|
A|----------------------------------------|--------------------------------|
E|----------------------------------------|--------------------------------|

   F                       C             F             G
e|-12/13-12-12----------15-12-13-15-12-|-----------------------------------|
B|-------------13----13----------------|-----------------------------------|
G|----------------12-------------------|-12-12h14-12-----------------------|
D|-------------------------------------|-------------15-14-12-14-15-12-----|
A|-------------------------------------|-----------------------------------|
E|-------------------------------------|-----------------------------------|




*OUTRO*
(Acoustic)
It sounds better using finger picking.

Guitar 1
   C              Dm             G              Am
e|-----------------1--1--1--1----------------------------------|
B|--1--1--1--1-----3--3--3--3-----1--1--1--1-----1--1--1--1----|
G|--0--0--0--0-----2--2--2--2-----0--0--0--0-----2--2--2--2----|
D|--2--2--2--2----0-----0---------0--0--0--0-------2-----2-----|
A|-3-----3-----------0-----0--------2-----2-----0-----0--------|
E|----3-----3--------------------3-----3-----------------------|

   F     Fm       C              F              G
e|-------------------------------------------------------------|
B|--1--1--1--1-----1--1--1--1-----1--1--1--1-----0--0--0--0----|
G|--2--2--1--1-----0--0--0--0-----2--2--2--2-----0--0--0--0----|
D|--3--3--3--3-----2--2--2--2-----3--3--3--3-----0--0--0--0----|
A|----3-----3-----3-----3-----------3-----3--------2-----2-----|
E|-1-----1-----------0-----0-----1-----1--------3-----3--------|

Guitar 2
e|-------------------------------------------------------------|
B|-------------------------------------------------------------|
G|---------9-10--10-9----------9--9-10-9----------------9------|
D|-10-10-12----12----12-12-9-12-10------12-10-10-9-10-12-10----|
A|-------------------------------------------------------------|
E|-------------------------------------------------------------|

e|-------------------------------------------------------------|
B|-------------------------------------------------------------|
G|-----------9------------------------------------------9------|
D|-10-9-10-12-10-10-9------10-9-9--9-10-12-10-10-9-10-12-------|
A|--------------------12-10------12----------------------------|
E|-------------------------------------------------------------|

That's "most" it for this section, it mostly repeats until it fades out.
Guitar is also accompanied by an Oboe.. but this isn't Ultimate-Oboe.com.



Thanks to user PunkRules13 for intro leads.
Feedback: E_Town_Punk@hotmail.com
Tap to rate this tab
 
# A B C D E F G H I J K L M N O P Q R S T U V W X Y Z