Song name
# A B C D E F G H I J K L M N O P Q R S T U V W X Y Z

Noise Pollution - Train Wreck tab

Train Wreck by Noise Pollution
visit 
to listen to the Song.

Intro:

E-------------------------------------------------------|x2
B-------7-----------7-----------7---------8-7-----------|
G-----7---7-------7---7-------7---7-----------7---------|
D---5-----------7-----------9-----------7---------------|
A-------------------------------------------------------|
E-------------------------------------------------------|

       G            A           B         D    C#
E-------------------------------------------------------|x3
B-------7-----------7-----------7---------8-7-----------|
G-----7---7-------7---7-------7---7-----------7---------|
D---5-----------7-----------9-----------7---------------|
A-------------------------------------------------------|
E-------------------------------------------------------|

       G            A           B         D
E-------------------------------------------------------|x3
B-------7-----------7-----------7---------8-------------|
G-----7---7-------7---7-------7---7---------------------|
D---5-----------7-----------9-----------7---------------|
A-------------------------------------------------------|
E-------------------------------------------------------|

Verse:
|G - A - B - A |x4

Refrain:
|G - D - A - B - A|x4

Intro
       G            A           B         D    C#
E-------------------------------------------------------|x3
B-------7-----------7-----------7---------8-7-----------|
G-----7---7-------7---7-------7---7-----------7---------|
D---5-----------7-----------9-----------7---------------|
A-------------------------------------------------------|
E-------------------------------------------------------|

       G            A           B         D
E-------------------------------------------------------|x3
B-------7-----------7-----------7---------8-------------|
G-----7---7-------7---7-------7---7---------------------|
D---5-----------7-----------9-----------7---------------|
A-------------------------------------------------------|
E-------------------------------------------------------|

Verse:
|G - A - B - A |x4

Refrain:
|G - D - A - B - A|

Solo:
|G - D - A - B - A|

Refrain:
|G - D - A - B - A|
Tap to rate this tab
# A B C D E F G H I J K L M N O P Q R S T U V W X Y Z