Song name
# A B C D E F G H I J K L M N O P Q R S T U V W X Y Z

Nomeansno - Dark Ages tab

#----------------------------------PLEASE NOTE---------------------------------#
#This file is the author's own work and represents their interpretation of the #
#song. You may only use this file for private study, scholarship, or research. #
#------------------------------------------------------------------------------#


================================================================================
    Title: Dark Ages                              Author: Nomeansno
    Album: Small Parts Isolated And Destroyed     Tabber: notsirK
================================================================================



Intro/ Bridge:

   +   +   +   +     +   +   +   +     +   +   +   +     +   +   +   +  
e: -----------------|-----------------|-----------------|-----------------|
B: -----------------|-----------------|-----------------|-----------------|
G: --------5---7----|5----------------|--------5---7----|5----------------|
D: 7---5-7----------|----7---5--------|7---5-7----------|----7---5--------|
A: -----------------|-----------------|-----------------|-----------------|
E: -----------------|-----------------|-----------------|-----------------|  (x3)


   +   +   +   +     +   +   +   +     +   +   +   +     +   +   +   +  
e: -----------------|-----------------|-----------------|-----------------|
B: -----------------|-----------------|-----------------|-----------------|
G: --------5---7----|5----------------|--------5---7----|5----------------|
D: 7---5-7----------|----7---5--------|7---5-7----------|----7---5--------|
A: -----------------|-----------------|-----------------|------------7----|
E: -----------------|-----------------|-----------------|-----------------|




Verse:


   +   +   +   +     +   +   +   +     +   +   +   +     +   +   +   +  
e: -----------------|-----------------|-----------------|-----------------|
B: -----------------|-----------------|-----------------|-----------------|
G: -----------------|-----------------|-----------------|-----------------|
D: -----------------|-----------------|-----------------|-----------------|
A: 5----------------|-----------------|-----------------|-----------------|
E: -----------------|-----------------|-----------------|-----------------|  (x1)


palm mute except starred (*) notes
   +   +   +   +     +   +   +   +     +   +   +   +     +   +   +   +  
e: -----------------|-----------------|-----------------|-----------------|
B: -----------------|-----------------|-----------------|-----------------|
G: -----------------|-----------------|-----------------|-----------------|
D: -----------------|-----------------|-----------------|-----------------|
A: ----5-------5----|-----------------|----5-------7----|-----------------|
E: -----------------|-----------------|-----------------|-----------------|  (x4)


   +   +   +   +     +   +   +   +     +   +   +   +     +   +   +   +  
e: -----------------|-----------------|-----------------|-----------------|
B: -----------------|-----------------|-----------------|-----------------|
G: -----------------|-----------------|-----------------|-----------------|
D: -----------------|-----------------|-----------------|-----------------|
A: ----5*------8----|8---8---8---8*---|----5*------7----|7---7---7---7*---|
E: -----------------|-----------------|-----------------|-----------------|  (x10)
    (with occasional bends)


Pre Chorus:

continue palm muting except where noted
   +   +   +   +     +   +   +   +     +   +   +   +     +   +   +   +  
e: -----------------|-----------------|-----------------|-----------------|
B: -----------------|-----------------|-----------------|-----------------|
G: -----------------|-----------------|-----------------|-----------------|
D: -----------------|-----------------|------------7*---|7*--7*--7*--7*---|
A: ----5*------8----|8---8---8---8*---|----5*------7*---|7*--7*--7*--7*---|
E: -----------------|-----------------|-----------------|-----------------|  (x3)


   +   +   +   +     +   +   +   +     +   +   +   +     +   +   +   +  
e: -----------------|-----------------|-----------------|-----------------|
B: -----------------|-----------------|-----------------|-----------------|
G: -----------------|-----------------|-----------------|-----------------|
D: -----------------|-----------------|------------7*---|7*--7*--7*-------|
A: ----5*------8----|8---8---8---8*---|----5*------7*---|7*--7*--7*--5*---|
E: -----------------|-----------------|-----------------|-----------------|


Chorus:

end palm muting
   +   +   +   +     +   +   +   +     +   +   +   +     +   +   +   +  
e: -----------------|-----------------|-----------------|-----------------|
B: -----------------|-----------------|-----------------|-----------------|
G: -----------------|-----------------|-----------------|5---5---5---5----|
D: -----------------|--------------bend-----------------|5---5---5---5----|
A: 5-------5---8----|8---8---8---8/---|----5------------|3---3---3---3----|
E: -----------------|-----------------|-----------------|-----------------|  (x4)



(Bridge x4)

(Verse x6)

(Pre Chorus x4)

(Chorus x4)

(Bridge x4)



Extended Bridge:


   +   +   +   +     +   +   +   +     +   +   +   +     +   +   +   +  
e: -----------------|-----------------|-----------------|-----------------|
B: -----------------|-----------------|-----------------|-----------------|
G: -----------------|5-------7--------|----9---9---7----|9---8------------|
D: 7---5-------5----|------------5----|-----------------|--------9---7----|
A: -----------------|-----------------|-----------------|-----------------|
E: -----------------|-----------------|-----------------|-----------------|


palm mute ................................................................
   +   +   +   +     +   +   +   +     +   +   +   +     +   +   +   +  
e: -----------------|-----------------|-----------------|-----------------|
B: -----------------|-----------------|-----------------|-----------------|
G: -----------------|5-------7--------|----9---9---7----|9---8------------|
D: 7---5-------5----|------------5----|-----------------|--------9---7----|
A: -----------------|-----------------|-----------------|-----------------|
E: -----------------|-----------------|-----------------|-----------------|  (x3)


Guitar Solo:
 (I don't think the spacing is correct- you'll have to listen to the recording)
 
                                       pull offs..........................
   +   +   +   +     +   +   +   +     +   +   +   +     +   +   +   +  
e: -----------------|-----------------|-----------------|-----------------|
B: -----------------|-----------------|-----------------|-----------------|
G: -----------------|-----------------|-----------------|-----------------|
D: -----------------|-----------------|-----------------|-----------------|
A: 5-------7---5----|----7---5---7----|7\5-5-7\5-5-7\5--|5-7\5-5-7\5-7\5--|
E: -----------------|-----------------|-----------------|-----------------|
                                                         
               p/offs
   +   +   +   +     +   +   +   +     +   +   +   +     +   +   +   +  
e: -----------------|-----------------|-----------------|-----------------|
B: -----------------|-----------------|-----------------|-----------------|
G: -----------------|------bend-------|--------------bend--------------bend
D: --------5---6\5--|6\5-6/-----------|6---3---0---5/---|(5)-3---0---6/---|
A: 5---7-8----------|-----------------|-----------------|-----------------|
E: -----------------|-----------------|-----------------|-----------------|
   

   +   +   +   +     +   +   +   +     +   +   +   +     +   +   +   +  
e: -----------------|--bend-----------|---bend----------|-----------------|
B: -----------------|8/------6--------|(6)/\(6)6--------|6---3-------3----|
G: -----------------|-----------------|-----------------|--------4--------|
D: (6)--------------|-----------------|-----------------|-----------------|
A: -----------------|-----------------|-----------------|-----------------|
E: -----------------|-----------------|-----------------|-----------------|

At this point I'm going to have to tell you- You're on your own.
It pretty much sounds like Tom is just messing around and I don't 
really know even how to tab what's going on.



Interlude:
   palm muting throughout 
   +   +   +   +     +   +   +   +     +   +   +   +     +   +   +   +  
e: -----------------|-----------------|-----------------|-----------------|
B: -----------------|-----------------|-----------------|-----------------|
G: -----------------|-----------------|-----------------|-----------------|
D: -----------------|-----------------|-----------------|-----------------|
A: 5---5---5---5----|5---5---5---5----|5---5---5---5----|5---5---5---5----|
E: -----------------|-----------------|-----------------|-----------------|



(Verse x2)
(Pre Chorus x4)
(Chorus x4)



Outro:

   +   +   +   +     +   +   +   +     +   +   +   +     +   +   +   +  
e: -----------------|-----------------|-----------------|-----------------|
B: -----------------|-----------------|-----------------|-----------------|
G: 7---7---7---7----|7---7---7---7----|7---7---7---7----|7---7---7---7----|
D: -----------------|-----------------|-----------------|-----------------|
A: 5---5---5---5----|5---5---5---5----|5---5---5---5----|5---5---5---5----|
E: -----------------|-----------------|-----------------|-----------------|


   +   +   +   +     +   +   +   +     +   +   +   +     +   +   +   +  
e: -----------------|-----------------|-----------------|-----------------|
B: -----------------|-----------------|-----------------|-----------------|
G: 7---7---7---7----|9-------9--------|9-------9--------|9/\/\/\/\/\/\/\/\|
D: -----------------|-----------------|-----------------|-----------------|
A: 5---5---5---5----|7-------7--------|7-------7--------|7/\/\/\/\/\/\/\/\|
E: -----------------|-----------------|-----------------|-----------------|
Tap to rate this tab
 
# A B C D E F G H I J K L M N O P Q R S T U V W X Y Z