Song name
# A B C D E F G H I J K L M N O P Q R S T U V W X Y Z

Nomeansno - Now tab

I think you can figure out the rhytm by yourself
()- palm mute
/- slide
Intro
e|--0--0--0--0--0--0----|
B|--3--3--3--3--3--3----|
G|--3--3--3--3--3--3----|   X8
D|--3--3--0--3--0--3----|
A|--0--0--0--0--0--0----|
E|----------------------|
Verse 1
e|----------------------------------------------------------|
B|----------------------------------------------------------|
G|--(7)-(7)-(7)-(7)-0-----------------0---------------------|
D|--(7)-(7)-(7)-(7)-0-(7)-(7)-(7)-(7)-0-(4)-(4)-4--4--4--4--|   X13
A|--(5)-(5)-(5)-(5)-0-(7)-(7)-(7)-(7)-0-(4)-(4)-4--4--4--4--|
E|------------------0-(5)-(5)-(5)-(5)-0-(2)-(2)-2--2--2--2--|

Chorus

e|---------------------------------------------------------|
B|---------------------------------------------------------|
G|-------------------------------------4--4--4-------------|
D|--3~--5~--6~--4~~---3~--5~--6~--4~~--4--4--4--5--5--5/4--|
A|--3~--5~--6~--4~~---3~--5~--6~--4~~--2--2--2--5--5--5/4--|
E|--1~--3~--4~--2~~---1~--3~--4~--2~~-----------3--3--3/2--|
then

e|---------------------------------------------------|
B|---------------------------------------------------|
G|--7-7-7-7-0-------------------------4-4-4----------|
D|--7-7-7-7-0-7-7-7-7-0-4-4-4-4-4-4---4-4-4-5-5-5/4--|
A|--5-5-5-5-0-7-7-7-7-0-4-4-4-4-4-4---2-2-2-5-5-5/4--|
E|----------0-5-5-5-5-0-2-2-2-2-2-2---------3-3-3/2--|

then
e|----------------------------------0-0-0-0-0-3----------------|
B|----------------------------------3-3-3-3-3-3----------------|
G|--7-7-7-7-0-----------------------3-3-3-3-3-3 x16 (after the-| 13 times
D|--7-7-7-7-0-7-7-7-7-0-4-4-4-4-4-4-3-3-0-3-0-3----------------| Tim kicks distortion)
A|--5-5-5-5-0-7-7-7-7-0-4-4-4-4-4-4-0-0-0-0-0-0----------------|
E|----------0-5-5-5-5-0-2-2-2-2-2-2----------------------------|

Verse 2
Same as Verse 1 but without palm muting

After the Verse 2 comes the same Verse 3

Chorus 2 the same as Chorus 1

Then comes solo part (i cant figure it out. it`s just random notes, i think)
you can keep playing main riff(verse riff)

Then comes Verse 4 same as other Verses but after 12 times kick the distortion and play 
that way riff 7 times

And again comes chorus

P.S. It will be great if you will add some palm muting between chords in chorus and verse.
I think that`s all. Sry if i did any mistakes, it`s my first tabs.
If you have any questions mail me on my_roof_onfire@yahoo.com
Tap to rate this tab
# A B C D E F G H I J K L M N O P Q R S T U V W X Y Z