Song name
# A B C D E F G H I J K L M N O P Q R S T U V W X Y Z

Nonpoint - Hide And Seek tab

Nonpoint: Hide And Seek

Transcribed by: mysticguitar77

YouTube Channel: MysticGuitar77

Date last modified: March 2, 2014

Tuning: Drop C (C,G,C,F,A,D)

Riff 1
D|-----------------------------------------------------------------------|
A|-------6--6-6----------------------------------------------------------|
F|-------5--5-5-10-10-10-10-12-12-12-----5-9-5--5-5----------------------|
C|-7-7-7-7--7-7-10-10-10-10-10-10-10-7-7-7-7-7--7-7-10-10-10-10-12-12-12-|
G|-5-5-5-5--5-5-8--8--8--8--8--8--8--5-5-5-5-5--5-5-10-10-10-10-10-10-10-|
C|-0-0-0-----------------------------0-0------------10-10-10-10-10-10-10-|

D|----------------------------------------------|
A|----------------------------------------------|
F|----------------------------------------------|
C|-12\8-8-8-10-10-10-10-12-12-12-12-10-10-10-10-|
G|-10\8-8-8-8--8--8--8--8--8--8--8--8--8--8--8--|
C|-10\8-8-8-8--8--8--8--8--8--8--8--8--8--8--8--|

D|-----------------------------------------|
A|-----------------------------------------|
F|-----------------------------------------|
C|-8-8-8-8-10-10-10-10-------------8-8-8-8-|
G|-8-8-8-8-8--8--8--8--12-12-12-12-8-8-8-8-|
C|-8-8-8-8-8--8--8--8--8--8--8--8--8-8-8-8-|

Play Riff 1 x2

Riff 2   "Forearms can't cover up lies in hiding..."
D|----------------------------------------------------------------|
A|----------------------------------------------------------------|
F|-----7/9-----------10-----12-----7/9----------------------------|
C|-0-0-----10-p0---------------0-0-----10-p0-------10-------10h12-|
G|---------------8-8----8-8---------------------------------------|
C|-------------------------------------------10-10----10-10-------|
   * *           * *    * *    * *           *  *     *  *

D|-------------------------------------------------------------|
A|-------------------------------------------------------------|
F|-------------------------------------------------------------|
C|-----8h10-10-10-----8h10-12-12-----8h10-10-10-----8h10-12-12-|
G|----------8--8-----------8--8-----------8--8-----------8--8--|
C|-8-8------8--8--8-8------8--8--8-8------8--8--8-8------8--8--|
   * *            * *            * *            * *

D|----------------------------------------------------------------|
A|----------------------------------------------------------------|
F|-----7/9-----------10-----12-----7/9----------------------------|
C|-0-0-----10-p0---------------0-0-----10-p0-------10-------10h12-|
G|---------------8-8----8-8---------------------------------------|
C|-------------------------------------------10-10----10-10-------|
   * *           * *    * *    * *           *  *     *  *

D|---------------------------------------------|
A|---------------------------------------------|
F|---------------------------------------------|
C|-8-8-8-8-10-10-10-10-12-12-12-12-10-10-10-10-|
G|-8-8-8-8-8--8--8--8--8--8--8--8--8--8--8--8--|
C|-8-8-8-8-8--8--8--8--8--8--8--8--8--8--8--8--|

D|-----------------------------------------|
A|-----------------------------------------|
F|-----------------------------------------|
C|-8-8-8-8-10-10-10-10-------------8-8-8-8-|
G|-8-8-8-8-8--8--8--8--12-12-12-12-8-8-8-8-|
C|-8-8-8-8-8--8--8--8--8--8--8--8--8-8-8-8-|

Riff 3    "This time..."
D|---------------------------------------------------------------------|
A|---------------------------------------------------------------------|
F|-------9-9-9-9---------------------------9-9-9-9---------------------|
C|-7-7-7-7-7-7-7-10-10-10-10-8-8-8-8-7-7-7-7-7-7-7-10-10-10-10-5-5-5-5-|
G|-5-5-5-5-5-5-5-10-10-10-10-8-8-8-8-5-5-5-5-5-5-5-10-10-10-10-5-5-5-5-|
C|-0-0-0---------10-10-10-10-8-8-8-8-0-0-0---------10-10-10-10-5-5-5-5-|

Play Riff 3 x2   "It's my turn, it's not your turn..."
Play Riff 1 x2   "Counting helps the hiding..."
Play Riff 2 x1   "Why should it make sense..."
Play Riff 3 x2   "It's my turn, it's not your turn..."
Play Riff 1 x2   "Counting helps the hiding..."

Riff 4   "Why are you jealous..."
D|---------------------------------------------|
A|---------------------------------------------|
F|-----9---9---9---9------9------9------9------|
C|-0-7---7---7---7---7------7------7------7----|
G|---------------------10-----10-----10-----10-|
C|---------------------------------------------|
   *

D|--------------------------------------------------------------|
A|--------------------------------------------------------------|
F|--------------------------------------------------------------|
C|-8-8-8-8-8-8-8-8h10-10-10-10-10-10-10-10h12-12-12-12-12-12-12-|
G|-8-8-8-8-8-8-8-8-8--8--8--8--8--8--8--8--8--8--8--8--8--8--8--|
C|-8-8-8-8-8-8-8-8-8--8--8--8--8--8--8--8--8--8--8--8--8--8--8--|

D|-------------------------|
A|-------------------------|
F|-------------------------|
C|-10-10-10-10-10-10-10-10-|
G|-8--8--8--8--8--8--8--8--|
C|-8--8--8--8--8--8--8--8--|

Play Riff 4 x2   "...all those games you played with me..."
Play Riff 2 ending chords x1 (listen to song for it)
Play Riff 1 x2   "Counting helps the hiding..."

Ending   "Ready or not..."
D|---------------------------------------------|
A|---------------------------------------------|
F|---------------------------------------------|
C|-8-8-8-8-10-10-10-10-12-12-12-12-10-10-10-10-|
G|-8-8-8-8-8--8--8--8--8--8--8--8--8--8--8--8--|
C|-8-8-8-8-8--8--8--8--8--8--8--8--8--8--8--8--|

D|---------------------------------------------|
A|---------------------------------------------|
F|---------------------------------------------|
C|-8-8-8-8-10-10-10-10----------------------8\-|
G|-8-8-8-8-8--8--8--8--12-12-12-12-10-10-10-8\-|
C|-8-8-8-8-8--8--8--8--8--8--8--8--8--8--8--8\-|

Enjoy!!
Tap to rate this tab
# A B C D E F G H I J K L M N O P Q R S T U V W X Y Z