Noordkaap - Ik Hou Van U chords

Highlighted       Show chord diagrams
A popular Belgian song by Noordkaap. 
First single from the album "Manneken Pis - Original Soundtrack" (1995)


  G                         B7
E-------------------------|-------------------------|
B-----------------------0-|-0-----------------------|
G-0-----------------0-2---|-------2-------------2---|
D-------------------------|-------------4-----4---4-|
A-------------------------|-------------------------|
E-------------------------|-------------------------|
  1 + + 2 + + 3 + + 4 + + | 1 + + 2 + + 3 + + 4 + + |

  Em                        C                     
E-------------------------|-------------------------|
B-------------------------|-3-----1-----------------|
G-0---------------------0-|-------------0-----2-----|
D---2---------------2-4---|-------------------------|
A-------------------------|-------------------------|
E-------------------------|-------------------------|
  1 + + 2 + + 3 + + 4 + + | 1 + + 2 + + 3 + + 4 + + |



   G
We waren bijna echt vergeten
    B7
hoe schoon de zomer wel kan zijn
Em
zonder zorgen en zonder regen
    C
hoe schoon de zomer hier kan zijn

we waren uit het oog verloren
hoe warm een weiland wel kan zijn
open de vensters en open de ogen
en zie hoe schoon de zomers zijn

   D             G             C   G   D
ik hou van u, ik hou van u, ik hou van u

            G               B7              Em
geef me een kus geef me een kus geef me een kus
                 C
en vlug, voor de laatste bus!

we waren bijna echt vergeten
hoe schoon de zomer wel kan zijn
zonder zorgen en zonder regen
hoe schoon de zomer hier kan zijn

ik hou van u, ik hou van u, ik hou van u

geef me een kus, geef me een kus, geef me een kus
en vlug, voor de laatste bus!

      D                G             C   G   D
La la laa la la, la la laa la la, la laa laa laa


Official Page of Stijn Meuris / Noordkaap:
http://www.meuris2010.be/v2/index.php

Youtube Url to the song : Ik Hou Van U by Noordkaap
http://www.youtube.com/watch?v=5cYYV_OxnJc
Tap to rate this tab
 
# A B C D E F G H I J K L M N O P Q R S T U V W X Y Z