Song name
# A B C D E F G H I J K L M N O P Q R S T U V W X Y Z

Noordkaap - Druk In Leuven tab

Riff A
                B               Bs4 B
E ----------| |-2--2---2-2--2-|-2---2----------| |
B -------2--| |-4--4---4-4--4-|-5---4-------2--| |
G -----2----|院-4--4---4-4--4-|-4---4-----2----|院
D -1h2------|院-4--4---4-4--4-|-4---4-1h2------|院
A ----------| |-2--2---2-2--2-|-2---2----------| |
E ----------| |---------------|----------------| |

Riff B
                B               Bs4 B
E ----------| |-2--2---2-2--2-|-2---2----------| |
B -------2--| |-4--4---4-4--4-|-5---4-------2--| |
G -------2--|院-4--4---4-4--4-|-4---4-------2--|院
D ---1h2----|院-4--4---4-4--4-|-4---4---1h2----|院
A -s2-------| |-2--2---2-2--2-|-2---2-s2-------| |
E ----------| |---------------|----------------| |

Riff C (chorus)
E ----------||-0--|
B -------2--||-0--|
G -----2----||----|
D -1s2------||----|
A ----------||----|
E ----------||----|
Tap to rate this tab
 
# A B C D E F G H I J K L M N O P Q R S T U V W X Y Z