Song name
# A B C D E F G H I J K L M N O P Q R S T U V W X Y Z

Norma Jean - Songs Sound Much Sadder tab

Help us improve GuitareTab! Take a short survey!
Band:Norma Jean
Song:Songs Sound Much Sadder
Album:Redeemer
myspace.com/wereshould1begin
(thats a one not an I)

Ok,so this is the second single
off of Redeemer.I love this song!
I only have the intro so far but
I know its right,So Im trying to
tab out the entire album if anybody
wants to help feel free to message me
on myspace,I would love some help haha



Tuning:Db Ab Db Gb Bb B(Typical NJ)

Scottie:Guitar 1
Chris:Guitar 2



Intro:
Guitar 1 
B |-----------------------------------------------------------|
Bb|-----------------------------------------------------------|
Gb|14-14-14-14-14-14-14-14---14-14--14-14-14------------------|
Db|-x--x--x--x--x--x--x--x----x--x---x--x--x------------------|
Ab|12-12-12-12-12-12-12-12---12-12--12-12-12------------------|
Db|-----------------------------------------------------------|


Guitar 1 
B |-----------------------------------------------------------|
Bb|-----------------------------------------------------------|
Gb|14-14-14-14-14-14-14-14---14-14--14-14---------------------|
Db|-x--x--x--x--x--x--x--x----x--x---x--x--0-0--0-0-----------|
Ab|12-12-12-12-12-12-12-12---12-12--12-12--0-0--0-0-----------|
Db|----------------------------------------0-0--0-0-----------|


Guitar 2
B |-----------------------------------------------------------|
Bb|-----------------------------------------------------------|
Gb|-----------------------------------------------------------|
Db|-----------------------------------------0-0--0-0----------|
Ab|-----------------------------------------0-0--0-0----------|
Db|-----------------------------------------0-0--0-0----------|

Guitar 1
B |-----------------------------------------------------------|
Bb|-----------------------------------------------------------|
Gb|14-14-14-14-14-14-14-14------------------------------------|
Db|-x--x--x--x--x--x--x--x---0-0--0-0-------------------------|
Ab|12-12-12-12-12-12-12-12---0-0--0-0-------------------------|
Db|--------------------------0-0--0-0-------------------------|


Guitar 2
B |-----------------------------------------------------------|
Bb|-----------------------------------------------------------|
Gb|-----------------------------------------------------------|
Db|--------------------------0-0--0-0-------------------------|
Ab|--------------------------0-0--0-0-------------------------|
Db|--------------------------0-0--0-0-------------------------|


Guitar 1
B |-----------------------------------------------------------|
Bb|-----------------------------------------------------------|
Gb|14-14-14-14-14-14-14-14------------------------------------|
Db|-x--x--x--x--x--x--x--x---0-0--0-0--0-0--0-0---------------|
Ab|12-12-12-12-12-12-12-12---0-0--0-0--0-0--0-0---------------|
Db|--------------------------0-0--0-0--0-0--0-0---------------|


Guitar 2
B |-----------------------------------------------------------|
Bb|-----------------------------------------------------------|
Gb|-----------------------------------------------------------|
Db|--------------------------0-0--0-0--0-0--0-0---------------|
Ab|--------------------------0-0--0-0--0-0--0-0---------------|
Db|--------------------------0-0--0-0--0-0--0-0---------------|


Pre-verse:
Guitar 1 
B |-----------------------------------------------------------|
Bb|-----------------------------------------------------------|
Gb|14-14-14-14-14-14-14-14------------------------------------|
Db|-x--x--x--x--x--x--x--x------------------------------------|
Ab|12-12-12-12-12-12-12-12------------------------------------|
Db|-----------------------------------------------------------|

Both Guitars
"We'll be LEGENDS!!!"
B |-----------------------------------------------------------|
Bb|-----------------------------------------------------------|
Gb|-----------------------------------------------------------|
Db|0-0-12/--0-0-12/--0-0-12/--0-0-12/-------------------------|
Ab|0-0-12/--0-0-12/--0-0-12/--0-0-12/-------------------------|
Db|0-0-12/--0-0-12/--0-0-12/--0-0-12/-------------------------|

Ya so thats all I've gotten so far
that should get you guys started
God Bless
Related for Songs Sound Much Sadder tab