Song name
# A B C D E F G H I J K L M N O P Q R S T U V W X Y Z

Norma Jean - It Was As If The Dead Man Stood Upon Air tab

     H          H          
E||-----------------------|
B||-----------------------|
G||--9s--------13S--------|
D||-----------------------|
A||--7s--------11S--------|
D||-----------------------|


  PM PM PM PM PM PM PM PM PM PM PM PM PM PM PM PM  
  S  S  S  S  S  S  S  S  S  S  S  S  S  S  S  S   
--------------------------------------------------|
--------------------------------------------------|
--------------------------------------------------|
--------------------------------------------------|
--------------------------------------------------|
--0--0--0--0--0--0--0--0--0--0--0--0--0--0--0--0--|


  H          H          
-----------------------|
-----------------------|
--9s--------13S--------|
-----------------------|
--7s--------11S--------|
-----------------------|


  PM PM PM PM PM PM PM PM PM PM PM PM PM PM PM PM  
  S  S  S  S  S  S  S  S  S  S  S  S  S  S  S  S   
--------------------------------------------------|
--------------------------------------------------|
--------------------------------------------------|
--------------------------------------------------|
--------------------------------------------------|
--0--0--0--0--0--0--0--0--0--0--0--0--0--0--0--0--|


  H          H          
-----------------------|
-----------------------|
--9s--------13S--------|
-----------------------|
--7s--------11S--------|
-----------------------|


  PM PM PM PM PM PM PM PM PM PM PM PM PM PM PM PM  
  S  S  S  S  S  S  S  S  S  S  S  S  S  S  S  S   
--------------------------------------------------|
--------------------------------------------------|
--------------------------------------------------|
--------------------------------------------------|
--------------------------------------------------|
--0--0--0--0--0--0--0--0--0--0--0--0--0--0--0--0--|


  H          H          
-----------------------|
-----------------------|
--9s--------13S--------|
-----------------------|
--7s--------11S--------|
-----------------------|


  PM PM PM PM PM PM PM PM PM PM PM PM PM PM PM PM  
  S  S  S  S  S  S  S  S  S  S  S  S  S  S  S  S   
--------------------------------------------------|
--------------------------------------------------|
--------------------------------------------------|
--------------------------------------------------|
--------------------------------------------------|
--0--0--0--0--0--0--0--0--0--0--0--0--0--0--0--0--|


  H          H          
-----------------------|
-----------------------|
--9s--------13S--------|
-----------------------|
--7s--------11S--------|
-----------------------|


  PM PM PM PM PM PM PM PM PM PM PM PM PM PM PM PM  
  S  S  S  S  S  S  S  S  S  S  S  S  S  S  S  S   
--------------------------------------------------|
--------------------------------------------------|
--------------------------------------------------|
--------------------------------------------------|
--------------------------------------------------|
--0--0--0--0--0--0--0--0--0--0--0--0--0--0--0--0--|


  H          H          
-----------------------|
-----------------------|
--9s--------13S--------|
-----------------------|
--7s--------11S--------|
-----------------------|


  PM PM PM PM PM PM PM PM PM PM PM PM PM PM PM PM  
  S  S  S  S  S  S  S  S  S  S  S  S  S  S  S  S   
--------------------------------------------------|
--------------------------------------------------|
--------------------------------------------------|
--------------------------------------------------|
--------------------------------------------------|
--0--0--0--0--0--0--0--0--0--0--0--0--0--0--0--0--|


  H          H          
-----------------------|
-----------------------|
--9s--------13S--------|
-----------------------|
--7s--------11S--------|
-----------------------|


  PM PM PM PM PM PM PM PM PM PM PM PM PM PM PM PM  
  S  S  S  S  S  S  S  S  S  S  S  S  S  S  S  S   
--------------------------------------------------|
--------------------------------------------------|
--------------------------------------------------|
--------------------------------------------------|
--------------------------------------------------|
--0--0--0--0--0--0--0--0--0--0--0--0--0--0--0--0--|


  H          H          
-----------------------|
-----------------------|
--9s--------13S--------|
-----------------------|
--7s--------11S--------|
-----------------------|


  PM PM PM PM PM PM PM PM PM PM PM PM PM PM PM PM  
  S  S  S  S  S  S  S  S  S  S  S  S  S  S  S  S   
--------------------------------------------------|
--------------------------------------------------|
--------------------------------------------------|
--------------------------------------------------|
--------------------------------------------------|
--0--0--0--0--0--0--0--0--0--0--0--0--0--0--0--0--|


   Pick Slide!!!        


  H          H            W                 
-----------------------|-------------------|
-----------------------|-------------------|
--9s--------13S--------|-------------------|
-----------------------|-------------------|
--7s--------11S--------|--0----------------|
-----------------------|--0----------------|


  H          H            W                 
-----------------------|-------------------|
-----------------------|-------------------|
--9s--------13S--------|-------------------|
-----------------------|-------------------|
--7s--------11S--------|--0----------------|
-----------------------|--0----------------|


  H          H            W                 
-----------------------|-------------------|
-----------------------|-------------------|
--9s--------13S--------|-------------------|
-----------------------|-------------------|
--7s--------11S--------|--0----------------|
-----------------------|--0----------------|


  H          H            W                 
-----------------------|-------------------|
-----------------------|-------------------|
--9s--------13S--------|-------------------|
-----------------------|-------------------|
--7s--------11S--------|--0----------------|
-----------------------|--0----------------|


  H          H            W                 
-----------------------|-------------------|
-----------------------|-------------------|
--9s--------16S--------|-------------------|
-----------------------|-------------------|
--7s--------14S--------|--0----------------|
-----------------------|--0----------------|


  H          H            W                 
-----------------------|-------------------|
-----------------------|-------------------|
--9s--------16S--------|-------------------|
-----------------------|-------------------|
--7s--------14S--------|--0----------------|
-----------------------|--0----------------|


  H          H            W                 
-----------------------|-------------------|
-----------------------|-------------------|
--9s--------16S--------|-------------------|
-----------------------|-------------------|
--7s--------14S--------|--0----------------|
-----------------------|--0----------------|


  H          H            W                 
-----------------------|-------------------|
-----------------------|-------------------|
--9s--------16S--------|-------------------|
-----------------------|-------------------|
--7s--------14S--------|--0----------------|
-----------------------|--0----------------|


                       PM PM      PH PM PM      PH  
  H        H           E  E  E    E  E  E  E    E   
--------------------|------------------------------|
--------------------|------------------------------|
--------------------|-----------<>7-----------<>7--|
--7--------3--------|-----------<>7-----------<>7--|
--7--------3--------|--0--0-----<>7--0--0-----<>7--|
--7--------3--------|--0--0----------0--0----------|


  PM PM      PH PM PM       
  E  E  E    E  E  Q.       
--------------------------||
--------------------------||
-----------<>7------------||
-----------<>7------------||
--0--0-----<>7--0--0------||
--0--0----------0--0------||




Duration Legend
---------------
W - whole
H - half
Q - quarter
E - 8th
S - 16th
T - 32nd
X - 64th
. - note dotted
|-n-|  - n-tuplets


Tablature Legend
----------------
L - tied note
x - dead note
g - grace note
(n) - ghost note
> - accentuded note
NH - natural harmonic
AH - artificial harmonic
TH - tapped harmonic
SH - semi harmonic
PH - pitch harmonic
h - hammer on
p - pull off
b - bend
br - bendRelease
pb - preBend
pbr - preBendRelease
brb - bendReleaseBend
\n/ - tremolo bar dip
\n - tremolo bar dive
-/n - tremolo bar Release up
/n\ - tremolo bar inverted dip
/n - tremolo bar return
-\n - tremolo bar Release down
S - shift slide
s - legato slide
/ -  slide into from below or out of upwards
\ -  slide into from above or out of downwards
~ - vibrato
W - wide vibrato
tr - trill
TP - tremolo picking
T - tapping
S - slap
P - pop
< - fade in
^ - brush up
v - brush down
Tap to rate this tab
 
# A B C D E F G H I J K L M N O P Q R S T U V W X Y Z