Song name
# A B C D E F G H I J K L M N O P Q R S T U V W X Y Z

Norma Jean - Pretty Soon I Dont Know What But Something Is Going To Happen tab

#----------------------------------PLEASE NOTE---------------------------------#
#This file is the author's own work and represents their interpretation of the #
#song. You may only use this file for private study, scholarship, or research. #
#------------------------------------------------------------------------------#

PRETTY SOON, I DON'T KNOW WHAT, BUT SOMETHING IS GOING TO HAPPEN
As recorded by Norma Jean
(From the 2002 Album BLESS THE MARTYR & KISS THE CHILD)

Transcribed by pieter kamps
	

Words and Music by Norma Jean
Arranged by Norma Jean

Gtr I (C# G# C# F# A# D#) - 'Left Distorted'
Gtr II (C# G# C# F# A# D#) - 'Right Distorted'
Gtr III (C# G# C# F# A# D#) - 'Intro Third Guitar'
Gtr IV (C# G# C# F# A# D#) - 'Breakdown Guitar'

   0:00
    Q=72
    D5                          D5
   6/8
    Gtr I
    E  H    +E     E  E  H      E  E  H       E  E H
||--------------|-------------|------------|-------------||
||o-------------|-------------|------------|------------o||
||--------------|-------10----|------10----|-------------||
||-----7----(7)-|-----8-------|----8-------|-----8-7-----||
||o-0-----------|--0----------|-0----------|--0---------o||
||--------------|-------------|------------|-------------||
|
|   Gtr II
|   >                           >
|   H.            +H.           H.           +H.
||--------------|-------------|------------|-------------||
||o-------------|-------------|------------|------------o||
||--------------|-------------|------------|-------------||
||--0-----------|-(0)---------|-0----------|-(0)---------||
||o-0-----------|-(0)---------|-0----------|-(0)--------o||
||--0-----------|-(0)---------|-0----------|-(0)---------||


  F5                          D5
  E  H    +E     E  E  H      E  E  H       E  E H
|-------------|-------------|------------|------------|
|-------------|-------------|------------|------------|
|-------------|-------10----|------10----|------------|
|----7----(7)-|-----8-------|----8-------|-----8-7----|
|-0-----------|--0----------|-0----------|--0---------|
|-------------|-------------|------------|------------|
|
| >                           >
| H.            +H.           H.           +H.
|-------------|-------------|------------|------------|
|-------------|-------------|------------|------------|
|-------------|-------------|------------|------------|
|-3-----------|-(3)---------|-0----------|-(0)--------|
|-3-----------|-(3)---------|-0----------|-(0)--------|
|-3-----------|-(3)---------|-0----------|-(0)--------|


  D5                          D5
  E  H    +E     E  E  H      E  E  H       E  E H
|-------------|-------------|------------|------------|
|-------------|-------------|------------|------------|
|-------------|-------10----|------10----|------------|
|----7----(7)-|-----8-------|----8-------|-----8-7----|
|-0-----------|--0----------|-0----------|--0---------|
|-------------|-------------|------------|------------|
|
| >                           >
| H.            +H.           H.           +H.
|-------------|-------------|------------|------------|
|-------------|-------------|------------|------------|
|-------------|-------------|------------|------------|
|-0-----------|-(0)---------|-0----------|-(0)--------|
|-0-----------|-(0)---------|-0----------|-(0)--------|
|-0-----------|-(0)---------|-0----------|-(0)--------|


                               F5
   E  H    +E     E  E  H      E  E  H       E  E H
|--------------|-------------|------------|------------|
|--------------|-------------|------------|------------|
|--------------|-------10----|------10----|------------|
|-----7----(7)-|-----8-------|----8-------|-----8-7----|
|--0-----------|--0----------|-0----------|--0---------|
|--------------|-------------|------------|------------|
|
|                              >
| +H.            +H.           H.           +H.
|--------------|-------------|------------|------------|
|--------------|-------------|------------|------------|
|--------------|-------------|------------|------------|
|-(0)----------|-(0)---------|-3----------|-(3)--------|
|-(0)----------|-(0)---------|-3----------|-(3)--------|
|-(0)----------|-(0)---------|-3----------|-(3)--------|


  D5                          D5
  E  H    +E     E  E  H      E  E  H          E  E H
|-------------|-------------|---------------|---------------|
|-------------|-------------|---------------|---------------|
|-------------|-------10----|------10-------|---------------|
|----7----(7)-|-----8-------|----8----------|-----8-7-------|
|-0-----------|--0----------|-0-------------|--0------------|
|-------------|-------------|---------------|---------------|
|
| >                           >
| H.            +H.           H.              +H.
|-------------|-------------|---------------|---------------|
|-------------|-------------|---------------|---------------|
|-------------|-------------|---------------|---------------|
|-0-----------|-(0)---------|-0-------------|-(0)-----------|
|-0-----------|-(0)---------|-0-------------|-(0)-----------|
|-0-----------|-(0)---------|-0-------------|-(0)-----------|
|
| Gtr III
| H.             H.           E  E  E E E E    E  E E E E E
|-------------|-------------|---------------|---------------|
|-------------|-------------|----5------5---|-----5-----5---|
|-------------|-------------|-7-----7-7---7-|--7----7-7---7-|
|-------------|-------------|---------------|---------------|
|-------------|-------------|---------------|---------------|
|-------------|-------------|---------------|---------------|


  F5                                D5
  E  H       +E     E  E  H         E  E  H          E  E H
|----------------|----------------|---------------|------------------|
|----------------|----------------|---------------|------------------|
|----------------|-------10-------|------10-------|------------------|
|----7-------(7)-|-----8----------|----8----------|-----8-7----------|
|-0--------------|--0-------------|-0-------------|--0---------------|
|----------------|----------------|---------------|------------------|
|
| >                                 >
| H.               +H.              H.              +H.
|----------------|----------------|---------------|------------------|
|----------------|----------------|---------------|------------------|
|----------------|----------------|---------------|------------------|
|-3--------------|-(3)------------|-0-------------|-(0)--------------|
|-3--------------|-(3)------------|-0-------------|-(0)--------------|
|-3--------------|-(3)------------|-0-------------|-(0)--------------|
|
| E  E E E E  E     E  E  E E E E   E  E  E E E E    E  E E E E E
|----------------|----------------|---------------|------------------|
|----5-----5-----|-----5------5---|----5------5---|-----5-----5------|
|-7----7-7----7--|--7-----7-7---7-|-7-----7-7---7-|--7----7-7---7----|
|----------------|----------------|---------------|------------------|
|----------------|----------------|---------------|------------------|
|----------------|----------------|---------------|------------------|


 1:09
                                     D5
   E  H       +E     E  E  H         E  E  H          E  E H
|-----------------|----------------|---------------|---------------|
|-----------------|----------------|---------------|---------------|
|-----------------|-------10-------|------10-------|---------------|
|-----7-------(7)-|-----8----------|----8----------|-----8-7-------|
|--0--------------|--0-------------|-0-------------|--0------------|
|-----------------|----------------|---------------|---------------|
|
|                                    >
| +H.               +H.              H.              +H.
|-----------------|----------------|---------------|---------------|
|-----------------|----------------|---------------|---------------|
|-----------------|----------------|---------------|---------------|
|-(0)-------------|-(0)------------|-0-------------|-(0)-----------|
|-(0)-------------|-(0)------------|-0-------------|-(0)-----------|
|-(0)-------------|-(0)------------|-0-------------|-(0)-----------|
|
|  E  E E E E  E     E  E  E E E E   E  E  E E E E    E  E E E E E
|-----------------|----------------|---------------|---------------|
|-----5-----5-----|-----5------5---|----5------5---|-----5-----5---|
|--7----7-7----7--|--7-----7-7---7-|-7-----7-7---7-|--7----7-7---7-|
|-----------------|----------------|---------------|---------------|
|-----------------|----------------|---------------|---------------|
|-----------------|----------------|---------------|---------------|


  F5                                D5
  E  H       +E     E  E  H         E  E  H          E  E H
|----------------|----------------|---------------|------------------|
|----------------|----------------|---------------|------------------|
|----------------|-------10-------|------10-------|------------------|
|----7-------(7)-|-----8----------|----8----------|-----8-7----------|
|-0--------------|--0-------------|-0-------------|--0---------------|
|----------------|----------------|---------------|------------------|
|
| >                                 >
| H.               +H.              H.              +H.
|----------------|----------------|---------------|------------------|
|----------------|----------------|---------------|------------------|
|----------------|----------------|---------------|------------------|
|-3--------------|-(3)------------|-0-------------|-(0)--------------|
|-3--------------|-(3)------------|-0-------------|-(0)--------------|
|-3--------------|-(3)------------|-0-------------|-(0)--------------|
|
| E  E E E E  E     E  E  E E E E   E  E  E E E E    E  E E E E E
|----------------|----------------|---------------|------------------|
|----5-----5-----|-----5------5---|----5------5---|-----5-----5------|
|-7----7-7----7--|--7-----7-7---7-|-7-----7-7---7-|--7----7-7---7----|
|----------------|----------------|---------------|------------------|
|----------------|----------------|---------------|------------------|
|----------------|----------------|---------------|------------------|


   1:32
    D5                    F5
    E S S S S E S S S S    E  S  S  S  S  E  S  S  S  S
||----------------------|-------------------------------|
||o---------------------|-------------------------------|
||--7-7-7-7-7-7-7-7-7-7s|=10-10-10-10-10-10-10-10-10-10-|
||--7-7-7-7-7-7-7-7-7-7s|=10-10-10-10-10-10-10-10-10-10-|
||o-5-5-5-5-5-5-5-5-5-5s|==8--8--8--8--8--8--8--8--8--8-|
||----------------------|-------------------------------|
|
|   E S S S S E S S S S    E  S  S  S  S  E  S  S  S  S
||----------------------|-------------------------------|
||o---------------------|-------------------------------|
||--7-7-7-7-7-7-7-7-7-7s|=10-10-10-10-10-10-10-10-10-10-|
||--x-x-x-x-x-x-x-x-x-x-|--x--x--x--x--x--x--x--x--x--x-|
||o-5-5-5-5-5-5-5-5-5-5s|==8--8--8--8--8--8--8--8--8--8-|
||----------------------|-------------------------------|


                                    1.,2.
  F5/Bb Bb5                          Bb/D  A/D                     F/D
   E     S  S  S  S  E  S  S  S  S    E     S  S  S  S  E  S  S  S  S   3x
|----------------------------------|------------------------------------||
|----------------------------------|-----------------------------------o||
|--3-----3--3--3--3--3--3--3--3--3s|==7-----7--7--7--7--7--7--7--7--7---||
|--3-----3--3--3--3--3--3--3--3--3s|==7-----7--7--7--7--7--7--7--7--7---||
|--1-----1--1--1--1--1--1--1--1--1s|==5-----5--5--5--5--5--5--5--5--5--o||
|----------------------------------|------------------------------------||
|
|  S  S  S  S  S  S  E  S  S  S  S    S  S  S  S  S  S  E  S  S  S  S   3x
|----------------------------------|------------------------------------||
|----------------------------------|-----------------------------------o||
|-10s15-15-15-15-15-15-15-15-15-15-|-15s14-14-14-14-14-14-14-14-14s10---||
|--x--x--x--x--x--x--x--x--x--x--x-|--x--x--x--x--x--x--x--x--x--x--x---||
|--8s13-13-13-13-13-13-13-13-13-13-|-13s12-12-12-12-12-12-12-12-12s=8--o||
|----------------------------------|------------------------------------||


 2:04
  3.
  Bb/A/D         F/D            D     F#/D5F#/D5
                                         >    >
                                         PM   PM
   E     S  S  S  S  E  S  S  S S     Q  E Q  E 12x
|---------------------------------||-------------||
|---------------------------------||o-----------o||
|--7-----7--7--7--7--7--7--7--7-7-||-------------||
|--7-----7--7--7--7--7--7--7--7-7-||--4----4-----||
|--5-----5--5--5--5--5--5--5--5-5-||o-1--0-1--0-o||
|---------------------------------||--1--0-1--0--||
|
|                                        PM   PM
|  S  S  S  S  S  S  E  S  S  S S     Q  E Q  E 12x
|---------------------------------||-------------||
|---------------------------------||o-----------o||
|-15s14-14-14-14s10-10-10-10-10s7-||-------------||
|--x--x--x--x--x--x--x--x--x--x-x-||--4--0-4--0--||
|-13s12-12-12-12s=8--8--8--8--8s5-||o-1--0-1--0-o||
|---------------------------------||--1--0-1--0--||


      F#/Eb  D5  F#D5b   F#/Eb  D5  F#D5b
     5/8
             PM|   PM|          PM|   PM|
      S. T E S S E S S   S. T E S S E S S  8x
|-||-------------------|-------------------||
|-||o------------------|------------------o||
|-||-------------------|-------------------||
|-||--4--4-4-----4-----|-4--4-4-----4------||
|-||o-1--1-1-0-0-1-0-0-|-1--1-1-0-0-1-0-0-o||
|-||--1--1-1-0-0-1-0-0-|-1--1-1-0-0-1-0-0--||
|
|            PM|   PM|          PM|   PM|
|     S. T E S S E S S   S. T E S S E S S  8x
|-||-------------------|-------------------||
|-||o------------------|------------------o||
|-||-------------------|-------------------||
|-||--4--4-4-----4-----|-4--4-4-----4------||
|-||o-1--1-1-0-0-1-0-0-|-1--1-1-0-0-1-0-0-o||
|-||--1--1-1-0-0-1-0-0-|-1--1-1-0-0-1-0-0--||


   3:07
   5/8
                    PM|         PM|
     S.    T  E     S  S  E     S  S
||-----------------------------------|
||o----------------------------------|
||-----------------------------------|
||---4-----4--4-----------4----------|
||o--1-----1--1-----0--0--1-----0--0-|
||---1-----1--1-----0--0--1-----0--0-|
|
|    S   S    S  S  S  S  S  S  S  S
||-----------11----------11----------|
||o-----15------15----15----15----15-|
||--14-------------14----------14----|
||-----------------------------------|
||o----------------------------------|
||-----------------------------------|


 1.,2.,3.,4.                          5.
                  PM|         PM|                     PM-|   PM|
   S.    T  E     S  S  E     S  S  5x  S.    T  E    S  S E S S
|-----------------------------------||---------------------------|
|----------------------------------o||---------------------------|
|-----------------------------------||---------------------------|
|--4-----4--4-----------4-----------||--4-----4--4---------4-----|
|--1-----1--1-----0--0--1-----0--0-o||--1-----1--1----0--0-1-0-0-|
|--1-----1--1-----0--0--1-----0--0--||--1-----1--1----0--0-1-0-0-|
|
|  S   S    S  S  S  S  S  S  S  S  5x  S   S    S  S Q.
|----------11----------11-----------||----------11---------------|
|-----15------15----15----15----15-o||-----15------15------------|
|-14-------------14----------14-----||-14------------------------|
|-----------------------------------||----------------x\---------|
|----------------------------------o||----------------x\---------|
|-----------------------------------||----------------x\---------|


                                  3:41
    F#/Eb      D/EbF#/ED/Eb        Eb5
                                  4/4
               PM|     PM|
    S.   T E   S S E   S S  7x     W                                6x
||--------------------------||-||-----------------------------------||
||o------------------------o||-||o---------------------------------o||
||--------------------------||-||-----------------------------------||
||--4----4-4-------4--------||-||-----------------------------------||
||o-1----1-1---0-0-1---0-0-o||-||o---------------------------------o||
||--1----1-1---0-0-1---0-0--||-||-----------------------------------||
|
|   PM-----------------------------------------------------------|
|   S  S   S S S S S S S S  7x     S S S S S S S S S S S S S S S S  6x
||--------------------------||-||-----------------------------------||
||o------------------------o||-||o---------------------------------o||
||--------------------------||-||-----------------------------------||
||--1--1---1-1-1-1-1-1-1-1--||-||--1-1-1-1-1-1-1-1-1-1-1-1-1-1-1-1--||
||o-1--1---1-1-1-1-1-1-1-1-o||-||o-1-1-1-1-1-1-1-1-1-1-1-1-1-1-1-1-o||
||--1--1---1-1-1-1-1-1-1-1--||-||--1-1-1-1-1-1-1-1-1-1-1-1-1-1-1-1--||


 4:01
  Q=88
  D5     G#5     D5     G#5       D5     G#5     D5
 6/8
  Gtrs I, II
                                                 PM--------------------|
  E. E S E E E   E. E S S E E S   E. E S E E E   S S S S S S S S S S S S
|--------------|----------------|--------------|--------------------------|
|--------------|----------------|--------------|--------------------------|
|--------------|----------------|--------------|--------------------------|
|-0--0-0S6-6-6-|-0--0-0S6-6-6-6-|-0--0-0S6-6-6-|-0-0-0-0-0-0-0-0-0-0-0-0--|
|-0--0-0S6-6-6-|-0--0-0S6-6-6-6-|-0--0-0S6-6-6-|-0-0-0-0-0-0-0-0-0-0-0-0--|
|-0--0-0S6-6-6-|-0--0-0S6-6-6-6-|-0--0-0S6-6-6-|-0-0-0-0-0-0-0-0-0-0-0-0--|


  Eb5D5  G#5     Eb5D5  G#5       Eb5D5  G#5     D5
  Gtr I
                                                 PM--------------------|
  E. E S E E E   E. E S S E E S   E. E S E E E   S S S S S S S S S S S S
|--------------|----------------|--------------|-------------------------|
|--------------|----------------|--------------|-------------------------|
|--------------|----------------|--------------|-------------------------|
|-1--0-0S6-6-6-|-1--0-0S6-6-6-6-|-1--0-0S6-6-6-|-0-0-0-0-0-0-0-0-0-0-0-0-|
|-1--0-0S6-6-6-|-1--0-0S6-6-6-6-|-1--0-0S6-6-6-|-0-0-0-0-0-0-0-0-0-0-0-0-|
|-1--0-0S6-6-6-|-1--0-0S6-6-6-6-|-1--0-0S6-6-6-|-0-0-0-0-0-0-0-0-0-0-0-0-|
|
| Gtr II
|                                                PM--------------------|
| E. E S E E E   E. E S S E E S   E. E S E E E   S S S S S S S S S S S S
|--------------|----------------|--------------|-------------------------|
|--------------|----------------|--------------|-------------------------|
|-8------------|-8--------------|-8------------|-------------------------|
|-x--0-0S6-6-6-|-x--0-0S6-6-6-6-|-x--0-0S6-6-6-|-0-0-0-0-0-0-0-0-0-0-0-0-|
|-6--0-0S6-6-6-|-6--0-0S6-6-6-6-|-6--0-0S6-6-6-|-0-0-0-0-0-0-0-0-0-0-0-0-|
|----0-0S6-6-6-|----0-0S6-6-6-6-|----0-0S6-6-6-|-0-0-0-0-0-0-0-0-0-0-0-0-|


  Eb5D5  G#5     Eb5D5  G#5       Eb5D5  G#5     D5
                                                 PM--------------------|
  E. E S E E E   E. E S S E E S   E. E S E E E   S S S S S S S S S S S S
|--------------|----------------|--------------|-------------------------|
|--------------|----------------|--------------|-------------------------|
|--------------|----------------|--------------|-------------------------|
|-1--0-0S6-6-6-|-1--0-0S6-6-6-6-|-1--0-0S6-6-6-|-0-0-0-0-0-0-0-0-0-0-0-0-|
|-1--0-0S6-6-6-|-1--0-0S6-6-6-6-|-1--0-0S6-6-6-|-0-0-0-0-0-0-0-0-0-0-0-0-|
|-1--0-0S6-6-6-|-1--0-0S6-6-6-6-|-1--0-0S6-6-6-|-0-0-0-0-0-0-0-0-0-0-0-0-|
|
|                                                PM--------------------|
| E. E S E E E   E. E S S E E S   E. E S E E E   S S S S S S S S S S S S
|--------------|----------------|--------------|-------------------------|
|--------------|----------------|--------------|-------------------------|
|--------------|-8--------------|-8------------|-------------------------|
|-8--0-0S6-6-6-|-x--0-0S6-6-6-6-|-x--0-0S6-6-6-|-0-0-0-0-0-0-0-0-0-0-0-0-|
|-6--0-0S6-6-6-|-6--0-0S6-6-6-6-|-6--0-0S6-6-6-|-0-0-0-0-0-0-0-0-0-0-0-0-|
|----0-0S6-6-6-|----0-0S6-6-6-6-|----0-0S6-6-6-|-0-0-0-0-0-0-0-0-0-0-0-0-|


    Eb5D5  G#5     Eb5D5  G#5       Eb5D5  G#5     D5
                                                   PM--------------------|
    E. E S E E E   E. E S S E E S   E. E S E E E   S S S S S S S S S S S S   4x
||---------------|----------------|--------------|---------------------------||
||o--------------|----------------|--------------|--------------------------o||
||---------------|----------------|--------------|---------------------------||
||--1--0-0S6-6-6-|-1--0-0S6-6-6-6-|-1--0-0S6-6-6-|-0-0-0-0-0-0-0-0-0-0-0-0---||
||o-1--0-0S6-6-6-|-1--0-0S6-6-6-6-|-1--0-0S6-6-6-|-0-0-0-0-0-0-0-0-0-0-0-0--o||
||--1--0-0S6-6-6-|-1--0-0S6-6-6-6-|-1--0-0S6-6-6-|-0-0-0-0-0-0-0-0-0-0-0-0---||
|
|                                                  PM--------------------|
|   E. E S E E E   E. E S S E E S   E. E S E E E   S S S S S S S S S S S S   4x
||---------------|----------------|--------------|---------------------------||
||o--------------|----------------|--------------|--------------------------o||
||--8------------|-8--------------|-8------------|---------------------------||
||--x--0-0S6-6-6-|-x--0-0S6-6-6-6-|-x--0-0S6-6-6-|-0-0-0-0-0-0-0-0-0-0-0-0---||
||o-6--0-0S6-6-6-|-6--0-0S6-6-6-6-|-6--0-0S6-6-6-|-0-0-0-0-0-0-0-0-0-0-0-0--o||
||-----0-0S6-6-6-|----0-0S6-6-6-6-|----0-0S6-6-6-|-0-0-0-0-0-0-0-0-0-0-0-0---||


   5:04
    D5                        D5
    Gtrs I, II
    PM----------------------------------------------|
    S S S S S S S S S S S S   S S S S S S S S S S S S  4x
||--------------------------|--------------------------||
||o-------------------------|-------------------------o||
||--------------------------|--------------------------||
||--0-0-0-0-0-0-0-0-0-0-0-0-|-0-0-0-0-0-0-0-0-0-0-0-0--||
||o-0-0-0-0-0-0-0-0-0-0-0-0-|-0-0-0-0-0-0-0-0-0-0-0-0-o||
||--0-0-0-0-0-0-0-0-0-0-0-0-|-0-0-0-0-0-0-0-0-0-0-0-0--||


  D5          Eb/D
  Gtr I
  PM-----------------------
  S S S S S S S S S S S S
|-------------------------|
|-------------------------|
|-------------------------|
|-0-0-0-0-0-0-0-0-0-0-0-0-|
|-0-0-0-0-0-0-0-0-0-0-0-0-|
|-0-0-0-0-0-0-0-0-0-0-0-0-|
|
| Gtr II
| PM--------|
| S S S S S S S S S S S S
|-------------------------|
|-------------------------|
|-------------8-8-8-8-8-8-|
|-0-0-0-0-0-0-x-x-x-x-x-x-|
|-0-0-0-0-0-0-6-6-6-6-6-6-|
|-0-0-0-0-0-0-------------|


    D5                          D5          Eb/D
 -----------------------------------------------------|
    S S S S S S S S S S S S  3x S S S S S S S S S S S S
||---------------------------||-------------------------|
||o-------------------------o||-------------------------|
||---------------------------||-------------------------|
||--0-0-0-0-0-0-0-0-0-0-0-0--||-0-0-0-0-0-0-0-0-0-0-0-0-|
||o-0-0-0-0-0-0-0-0-0-0-0-0-o||-0-0-0-0-0-0-0-0-0-0-0-0-|
||--0-0-0-0-0-0-0-0-0-0-0-0--||-0-0-0-0-0-0-0-0-0-0-0-0-|
|
|   PM------------------------------------|
|   S S S S S S S S S S S S  3x S S S S S S S S S S S S
||---------------------------||-------------------------|
||o-------------------------o||-------------------------|
||---------------------------||-------------8-8-8-8-8-8-|
||--0-0-0-0-0-0-0-0-0-0-0-0--||-0-0-0-0-0-0-x-x-x-x-x-x-|
||o-0-0-0-0-0-0-0-0-0-0-0-0-o||-0-0-0-0-0-0-6-6-6-6-6-6-|
||--0-0-0-0-0-0-0-0-0-0-0-0--||-0-0-0-0-0-0-------------|


    D5
    PM-------------------------
    S S S S S S S S S S S S  3x
||---------------------------||
||o-------------------------o||
||---------------------------||
||--0-0-0-0-0-0-0-0-0-0-0-0--||
||o-0-0-0-0-0-0-0-0-0-0-0-0-o||
||--0-0-0-0-0-0-0-0-0-0-0-0--||
|
|   PM-------------------------
|   S S S S S S S S S S S S  3x
||---------------------------||
||o-------------------------o||
||---------------------------||
||--0-0-0-0-0-0-0-0-0-0-0-0--||
||o-0-0-0-0-0-0-0-0-0-0-0-0-o||
||--0-0-0-0-0-0-0-0-0-0-0-0--||


  D5          Eb/D          D5          Eb/D
 -------------------------------------|
  S S S S S S S S S S S S   S S S S S S S S S S S S
|-------------------------|---------------------------|
|-------------------------|---------------------------|
|-------------------------|-------------8-8-8-8-8-8---|
|-0-0-0-0-0-0-0-0-0-0-0-0-|-0-0-0-0-0-0-x-x-x-x-x-x---|
|-0-0-0-0-0-0-0-0-0-0-0-0-|-0-0-0-0-0-0-6-6-6-6-6-6---|
|-0-0-0-0-0-0-0-0-0-0-0-0-|-0-0-0-0-0-0---------------|
|
|-----------|               PM--------------------|
| S S S S S S S S S S S S   S S S S S S S S S S S S
|-------------------------|---------------------------|
|-------------------------|---------------------------|
|-------------8-8-8-8-8-8-|---------------------------|
|-0-0-0-0-0-0-x-x-x-x-x-x-|-0-0-0-0-0-0-0-0-0-0-0-0---|
|-0-0-0-0-0-0-6-6-6-6-6-6-|-0-0-0-0-0-0-0-0-0-0-0-0---|
|-0-0-0-0-0-0-------------|-0-0-0-0-0-0-0-0-0-0-0-0---|


    D5
    PM-------------------------
    S S S S S S S S S S S S
||---------------------------||
||o-------------------------o||
||---------------------------||
||--0-0-0-0-0-0-0-0-0-0-0-0--||
||o-0-0-0-0-0-0-0-0-0-0-0-0-o||
||--0-0-0-0-0-0-0-0-0-0-0-0--||
|
|   PM-------------------------
|   S S S S S S S S S S S S
||---------------------------||
||o-------------------------o||
||---------------------------||
||--0-0-0-0-0-0-0-0-0-0-0-0--||
||o-0-0-0-0-0-0-0-0-0-0-0-0-o||
||--0-0-0-0-0-0-0-0-0-0-0-0--||


  D5          Eb/D          D5          Eb/D
 -------------------------------------|
  S S S S S S S S S S S S   S S S S S S S S S S S S
|-------------------------|---------------------------|
|-------------------------|---------------------------|
|-------------------------|-------------8-8-8-8-8-8---|
|-0-0-0-0-0-0-0-0-0-0-0-0-|-0-0-0-0-0-0-x-x-x-x-x-x---|
|-0-0-0-0-0-0-0-0-0-0-0-0-|-0-0-0-0-0-0-6-6-6-6-6-6---|
|-0-0-0-0-0-0-0-0-0-0-0-0-|-0-0-0-0-0-0---------------|
|
|-----------|               PM--------------------|
| S S S S S S S S S S S S   S S S S S S S S S S S S
|-------------------------|---------------------------|
|-------------------------|---------------------------|
|-------------8-8-8-8-8-8-|---------------------------|
|-0-0-0-0-0-0-x-x-x-x-x-x-|-0-0-0-0-0-0-0-0-0-0-0-0---|
|-0-0-0-0-0-0-6-6-6-6-6-6-|-0-0-0-0-0-0-0-0-0-0-0-0---|
|-0-0-0-0-0-0-------------|-0-0-0-0-0-0-0-0-0-0-0-0---|


    D5
    PM---------------------------
    S S S S S S S S S S S S  4x
||---------------------------||-|
||o-------------------------o||-|
||---------------------------||-|
||--0-0-0-0-0-0-0-0-0-0-0-0--||-|
||o-0-0-0-0-0-0-0-0-0-0-0-0-o||-|
||--0-0-0-0-0-0-0-0-0-0-0-0--||-|
|
|   PM---------------------------
|   S S S S S S S S S S S S  4x
||---------------------------||-|
||o-------------------------o||-|
||---------------------------||-|
||--0-0-0-0-0-0-0-0-0-0-0-0--||-|
||o-0-0-0-0-0-0-0-0-0-0-0-0-o||-|
||--0-0-0-0-0-0-0-0-0-0-0-0--||-|


    D5          Eb/D          D5          Eb/D
 ---------------------------------------|
    S S S S S S S S S S S S   S S S S S S S S S S S S   8x
||--------------------------|---------------------------||
||o-------------------------|--------------------------o||
||--------------------------|-------------8-8-8-8-8-8---||
||--0-0-0-0-0-0-0-0-0-0-0-0-|-0-0-0-0-0-0-x-x-x-x-x-x---||
||o-0-0-0-0-0-0-0-0-0-0-0-0-|-0-0-0-0-0-0-6-6-6-6-6-6--o||
||--0-0-0-0-0-0-0-0-0-0-0-0-|-0-0-0-0-0-0---------------||
|
|-------------|               PM--------------------|
|   S S S S S S S S S S S S   S S S S S S S S S S S S   8x
||--------------------------|---------------------------||
||o-------------------------|--------------------------o||
||--------------8-8-8-8-8-8-|---------------------------||
||--0-0-0-0-0-0-x-x-x-x-x-x-|-0-0-0-0-0-0-0-0-0-0-0-0---||
||o-0-0-0-0-0-0-6-6-6-6-6-6-|-0-0-0-0-0-0-0-0-0-0-0-0--o||
||--0-0-0-0-0-0-------------|-0-0-0-0-0-0-0-0-0-0-0-0---||


 6:26
  Eb5D5  G#5     Eb5D5  G#5       Eb5D5  G#5     D5
  Gtrs I, II
                                                 PM--------------------|
  E. E S E E E   E. E S S E E S   E. E S E E E   S S S S S S S S S S S S
|--------------|----------------|--------------|-------------------------|
|--------------|----------------|--------------|-------------------------|
|--------------|----------------|--------------|-------------------------|
|-1--0-0S6-6-6-|-1--0-0S6-6-6-6-|-1--0-0S6-6-6-|-0-0-0-0-0-0-0-0-0-0-0-0-|
|-1--0-0S6-6-6-|-1--0-0S6-6-6-6-|-1--0-0S6-6-6-|-0-0-0-0-0-0-0-0-0-0-0-0-|
|-1--0-0S6-6-6-|-1--0-0S6-6-6-6-|-1--0-0S6-6-6-|-0-0-0-0-0-0-0-0-0-0-0-0-|


    Eb5D5  G#5     Eb5D5  G#5       Eb5D5  G#5     D5
    Gtr I
                                                   PM--------------------|
    E. E S E E E   E. E S S E E S   E. E S E E E   S S S S S S S S S S S S
||---------------|----------------|--------------|---------------------------||
||o--------------|----------------|--------------|--------------------------o||
||---------------|----------------|--------------|---------------------------||
||--1--0-0S6-6-6-|-1--0-0S6-6-6-6-|-1--0-0S6-6-6-|-0-0-0-0-0-0-0-0-0-0-0-0---||
||o-1--0-0S6-6-6-|-1--0-0S6-6-6-6-|-1--0-0S6-6-6-|-0-0-0-0-0-0-0-0-0-0-0-0--o||
||--1--0-0S6-6-6-|-1--0-0S6-6-6-6-|-1--0-0S6-6-6-|-0-0-0-0-0-0-0-0-0-0-0-0---||
|
|   Gtr II
|                                                  PM--------------------|
|   E. E S E E E   E. E S S E E S   E. E S E E E   S S S S S S S S S S S S
||---------------|----------------|--------------|---------------------------||
||o--------------|----------------|--------------|--------------------------o||
||--8------------|-8--------------|-8------------|---------------------------||
||--x--0-0S6-6-6-|-x--0-0S6-6-6-6-|-x--0-0S6-6-6-|-0-0-0-0-0-0-0-0-0-0-0-0---||
||o-6--0-0S6-6-6-|-6--0-0S6-6-6-6-|-6--0-0S6-6-6-|-0-0-0-0-0-0-0-0-0-0-0-0--o||
||-----0-0S6-6-6-|----0-0S6-6-6-6-|----0-0S6-6-6-|-0-0-0-0-0-0-0-0-0-0-0-0---||


    Bb/Eb           Bb/ED5  G#5
     E. E S E E E    E. E S S E E S
||----------------|-----------------|
||o---------------|-----------------|
||----------------|-----------------|
||---1--0-0S6-6-6-|--1--0-0S6-6-6-6-|
||o--1--0-0S6-6-6-|--1--0-0S6-6-6-6-|
||---1--0-0S6-6-6-|--1--0-0S6-6-6-6-|
|
|    E. E S E E E    E. E S S E E S
||----------------|-----------------|
||o---------------|-----------------|
||--15------------|-15--------------|
||---x--0-0S6-6-6-|--x--0-0S6-6-6-6-|
||o-13--0-0S6-6-6-|-13--0-0S6-6-6-6-|
||------0-0S6-6-6-|-----0-0S6-6-6-6-|


  Bb/ED5  G#5     D5
                  PM--------------------|
   E. E S E E E   S S S S S S S S S S S S   4x
|---------------|---------------------------||
|---------------|--------------------------o||
|---------------|---------------------------||
|--1--0-0S6-6-6-|-0-0-0-0-0-0-0-0-0-0-0-0---||
|--1--0-0S6-6-6-|-0-0-0-0-0-0-0-0-0-0-0-0--o||
|--1--0-0S6-6-6-|-0-0-0-0-0-0-0-0-0-0-0-0---||
|
|                 PM--------------------|
|  E. E S E E E   S S S S S S S S S S S S   4x
|---------------|---------------------------||
|---------------|--------------------------o||
|-15------------|---------------------------||
|--x--0-0S6-6-6-|-0-0-0-0-0-0-0-0-0-0-0-0---||
|-13--0-0S6-6-6-|-0-0-0-0-0-0-0-0-0-0-0-0--o||
|-----0-0S6-6-6-|-0-0-0-0-0-0-0-0-0-0-0-0---||


  Bb/ED5  G#5     Bb/ED5  G#5       Eb5 D5  G#5     D5
                                                    PM--------------------|
   E. E S E E E    E. E S S E E S    E. E S E E E   S S S S S S S S S S S S
|---------------|-----------------|---------------|-------------------------|
|---------------|-----------------|---------------|-------------------------|
|---------------|-----------------|---------------|-------------------------|
|--1--0-0S6-6-6-|--1--0-0S6-6-6-6-|--1--0-0S6-6-6-|-0-0-0-0-0-0-0-0-0-0-0-0-|
|--1--0-0S6-6-6-|--1--0-0S6-6-6-6-|--1--0-0S6-6-6-|-0-0-0-0-0-0-0-0-0-0-0-0-|
|--1--0-0S6-6-6-|--1--0-0S6-6-6-6-|--1--0-0S6-6-6-|-0-0-0-0-0-0-0-0-0-0-0-0-|
|
|                                                   PM--------------------|
|  E. E S E E E    E. E S S E E S    E. E S E E E   S S S S S S S S S S S S
|---------------|-----------------|---------------|-------------------------|
|---------------|-----------------|---------------|-------------------------|
|-15------------|-15--------------|-15------------|-------------------------|
|--x--0-0S6-6-6-|--x--0-0S6-6-6-6-|-13--0-0S6-6-6-|-0-0-0-0-0-0-0-0-0-0-0-0-|
|-13--0-0S6-6-6-|-13--0-0S6-6-6-6-|-----0-0S6-6-6-|-0-0-0-0-0-0-0-0-0-0-0-0-|
|-----0-0S6-6-6-|-----0-0S6-6-6-6-|-----0-0S6-6-6-|-0-0-0-0-0-0-0-0-0-0-0-0-|


  Bb/ED5  G#5     Bb/ED5  G#5       Bb/ED5  G#5     D5
                                                    PM--------------------|
   E. E S E E E    E. E S S E E S    E. E S E E E   S S S S S S S S S S S S
|---------------|-----------------|---------------|-------------------------|
|---------------|-----------------|---------------|-------------------------|
|---------------|-----------------|---------------|-------------------------|
|--1--0-0S6-6-6-|--1--0-0S6-6-6-6-|--1--0-0S6-6-6-|-0-0-0-0-0-0-0-0-0-0-0-0-|
|--1--0-0S6-6-6-|--1--0-0S6-6-6-6-|--1--0-0S6-6-6-|-0-0-0-0-0-0-0-0-0-0-0-0-|
|--1--0-0S6-6-6-|--1--0-0S6-6-6-6-|--1--0-0S6-6-6-|-0-0-0-0-0-0-0-0-0-0-0-0-|
|
|                                                   PM--------------------|
|  E. E S E E E    E. E S S E E S    E. E S E E E   S S S S S S S S S S S S
|---------------|-----------------|---------------|-------------------------|
|---------------|-----------------|---------------|-------------------------|
|-15------------|-15--------------|-15------------|-------------------------|
|--x--0-0S6-6-6-|--x--0-0S6-6-6-6-|--x--0-0S6-6-6-|-0-0-0-0-0-0-0-0-0-0-0-0-|
|-13--0-0S6-6-6-|-13--0-0S6-6-6-6-|-13--0-0S6-6-6-|-0-0-0-0-0-0-0-0-0-0-0-0-|
|-----0-0S6-6-6-|-----0-0S6-6-6-6-|-----0-0S6-6-6-|-0-0-0-0-0-0-0-0-0-0-0-0-|


 7:42
  D5           D                         D5
  PM---------|                            PM------------------------
  S  S S S S S  S   S   S   S   S   S     S  S S S S S S S S S S S
|------------------<7>-<7>-------------|---------------------------|
|--------------<7>-<7>-<7>-<7>-<7>-----|---------------------------|
|--------------<7>---------<7>-<7>-<7>-|---------------------------|
|-0--0-0-0-0-0---------------------<7>-|--0--0-0-0-0-0-0-0-0-0-0-0-|
|-0--0-0-0-0-0-------------------------|--0--0-0-0-0-0-0-0-0-0-0-0-|
|-0--0-0-0-0-0-------------------------|--0--0-0-0-0-0-0-0-0-0-0-0-|
|
| >
| H.                                     +H.
|--------------------------------------|---------------------------|
|--------------------------------------|---------------------------|
|--------------------------------------|---------------------------|
|-0------------------------------------|-(0)-----------------------|
|-0------------------------------------|-(0)-----------------------|
|-0------------------------------------|-(0)-----------------------|


  D5            D                         D5
 -------------|                            PM---------------------|
   S  S S S S S  S   S   S   S   S   S     S  S S S S S S S S S S S
|-------------------<7>-<7>-------------|------------------------------|
|---------------<7>-<7>-<7>-<7>-<7>-----|------------------------------|
|---------------<7>---------<7>-<7>-<7>-|------------------------------|
|--0--0-0-0-0-0---------------------<7>-|--0--0-0-0-0-0-0-0-0-0-0-0----|
|--0--0-0-0-0-0-------------------------|--0--0-0-0-0-0-0-0-0-0-0-0----|
|--0--0-0-0-0-0-------------------------|--0--0-0-0-0-0-0-0-0-0-0-0----|
|
| +H.                                     +H.
|---------------------------------------|------------------------------|
|---------------------------------------|------------------------------|
|---------------------------------------|------------------------------|
|-(0)-----------------------------------|-(0)--------------------------|
|-(0)-----------------------------------|-(0)--------------------------|
|-(0)-----------------------------------|-(0)--------------------------|


  Eb5/D                 D5                       D5
  S  S   S   S   S   S  S   S   S   S   S   S     S   S   S   S   S   S  S  S   S   S   S   S
|-------<7>-----<7>-<7>--------<7>-----<7>-<7>-|---------<7>-----<7>-<7>-------<7>-----<7>-<7>-|
|-------<7>-<7>-<7>-<7>--------<7>-<7>-<7>-<7>-|---------<7>-<7>-<7>-<7>-------<7>-<7>-<7>-<7>-|
|----<7>-<7>-<7>-<7>-----<7>-<7>-<7>-<7>-|------<7>-<7>-<7>-<7>----<7>-<7>-<7>-<7>-|
|-0--0------------------0---0------------------|--0---0------------------0--0------------------|
|-0--0------------------0---0------------------|--0---0------------------0--0------------------|
|-0--0------------------0---0------------------|--0---0------------------0--0------------------|
|
|                                                 >
| Q.                    Q.                       +H.
|----------------------------------------------|-----------------------------------------------|
|----------------------------------------------|-----------------------------------------------|
|----------------------------------------------|-----------------------------------------------|
|-1p====================0----------------------|-(0)-------------------------------------------|
|-1p====================0----------------------|-(0)-------------------------------------------|
|-1p====================0----------------------|-(0)-------------------------------------------|


  D5                      D5                      D5
   S   S   S   S   S   S  S  S   S   S   S   S     S   S   S   S   S   S  S  S   S   S   S   S
|---------<7>-----<7>-<7>-------<7>-----<7>-<7>-|---------<7>-----<7>-<7>-------<7>-----<7>-<7>----|
|---------<7>-<7>-<7>-<7>-------<7>-<7>-<7>-<7>-|---------<7>-<7>-<7>-<7>-------<7>-<7>-<7>-<7>----|
|------<7>-<7>-<7>-<7>----<7>-<7>-<7>-<7>-|------<7>-<7>-<7>-<7>----<7>-<7>-<7>-<7>----|
|--0---0------------------0--0------------------|--0---0------------------0--0---------------------|
|--0---0------------------0--0------------------|--0---0------------------0--0---------------------|
|--0---0------------------0--0------------------|--0---0------------------0--0---------------------|
|
| +H.                                             +H.
|-----------------------------------------------|--------------------------------------------------|
|-----------------------------------------------|--------------------------------------------------|
|-----------------------------------------------|--------------------------------------------------|
|-(0)-------------------------------------------|-(0)----------------------------------------------|
|-(0)-------------------------------------------|-(0)----------------------------------------------|
|-(0)-------------------------------------------|-(0)----------------------------------------------|


    F#/D5F#/D5  F#/D5F#/D5  F#/D5F#/D5  F#/D5F#/D5
    Gtrs I, II
       >    >      >    >      >    >      >    >
       PM   PM     PM   PM     PM   PM     PM   PM
    Q  E Q  E   Q  E Q  E   Q  E Q  E   Q  E Q  E  4x
||------------|-----------|-----------|------------||
||o-----------|-----------|-----------|-----------o||
||------------|-----------|-----------|------------||
||--4----4----|-4----4----|-4----4----|-4----4-----||
||o-1--0-1--0-|-1--0-1--0-|-1--0-1--0-|-1--0-1--0-o||
||--1--0-1--0-|-1--0-1--0-|-1--0-1--0-|-1--0-1--0--||


   8:31
    Q=80
    Eb5          D5
   4/4
    Gtrs I, II
    H    a E. E. E   +H     S S S S S S S S
||-----------------|------------------------|
||o----------------|------------------------|
||-----------------|------------------------|
||--1---------1--0-|-(0)----3-3-3-3-3-3-3-0-|
||o-1----1h2-----0-|-(0)--------------------|
||--1------------0-|-(0)--------------------|


                  1.,2.,3.
  Eb5          D5
  H    a E. E. E   +H     S S S S S S S S   4x
|----------------|--------------------------||
|----------------|-------------------------o||
|----------------|--------------------------||
|-1---------1--0-|-(0)----3-3-3-3-3-3-3-0---||
|-1----1h2-----0-|-(0)---------------------o||
|-1------------0-|-(0)----------------------||


  4.
  D5                       D5
  Gtr I
   W                       E E H.
|------------------------|-------------|
|------------------------|-------------|
|------------------------|-------------|
|--0---------------------|---7h8-------|
|--0---------------------|-0-----------|
|--0---------------------|-0-----------|
|
| Gtr II
|  H     S S S S S S S S   W
|------------------------|-------------|
|------------------------|-------------|
|------------------------|-------------|
|-(0)----3-3-3-3-3-3-3-0-|-0-----------|
|-(0)--------------------|-0-----------|
|-(0)--------------------|-0-----------|


  D5               D5             D5
   E  E  H.        E E  H.         E  E H.
|----------------|--------------|-------------|
|----------------|--------------|-------------|
|-------10-------|-----10-------|-------------|
|-----8----------|---8----------|-----7-------|
|--0-------------|-0------------|--0----0-----|
|--0-------------|-0------------|--0----------|
|
| +W               W              +W
|----------------|--------------|-------------|
|----------------|--------------|-------------|
|----------------|--------------|-------------|
|-(0)------------|-0------------|-(0)---------|
|-(0)------------|-0------------|-(0)---------|
|-(0)------------|-0------------|-(0)---------|


  F5            F5               D5             D5
  E E H.         E  E  H.        E E  H.         E  E H.
|-------------|----------------|--------------|-------------|
|-------------|----------------|--------------|-------------|
|-------------|-------10-------|-----10-------|-------------|
|---7h8-------|-----8----------|---8----------|-----7-------|
|-0-----------|--0-------------|-0------------|--0----0-----|
|-------------|----------------|-0------------|--0----------|
|
| W             +W               W              +W
|-------------|----------------|--------------|-------------|
|-------------|----------------|--------------|-------------|
|-------------|----------------|--------------|-------------|
|-3-----------|-(3)------------|-0------------|-(0)---------|
|-3-----------|-(3)------------|-0------------|-(0)---------|
|-3-----------|-(3)------------|-0------------|-(0)---------|


   9:44
    A              Bb5/A          Bb5/A          A
    Gtr IV
    E E +H.        E E  H.        E E  H.        E E H.     8x
||---------------|--------------|--------------|------------||
||o--------------|--------------|--------------|-----------o||
||---------------|-----10-------|-----10-------|------------||
||----8-(8)------|---8----------|---8----------|---7--------||
||o-0------------|-0------------|-0------------|-0---0-----o||
||---------------|--------------|--------------|------------||


   11:18
    E/Bb          D5            E/Bb          D5
    Gtr IV
    E   E +H.                   E   E  H.
||----------------------------|---------------------------|
||o---------------------------|---------------------------|
||----------------------------|-------10------------------|
||------8-(8)-----------------|-----8---------------------|
||o-0-------------------------|-0-------------------------|
||----------------------------|---------------------------|
|
|   Gtrs I, II
|                     >     >                     >     >
|                 PM----|   PM                PM----|   PM
|   S S E  E  S S S S E S S E   S S E  E  S S S S E S S E
||----------------------------|---------------------------|
||o---------------------------|---------------------------|
||--9-9-9-----9-9\------------|-9-9-9-----9-9\------------|
||--8-8-8-----8-8S0-0-0-0-0-0-|-8-8-8-----8-8S0-0-0-0-0-0-|
||o-8-8-8-----8-8S0-0-0-0-0-0-|-8-8-8-----8-8S0-0-0-0-0-0-|
||--8-8-8-----8-8S0-0-0-0-0-0-|-8-8-8-----8-8S0-0-0-0-0-0-|


  E/Bb          D5            E/Bb         D5
  E   E  H.                   E   E H.                    3x
|---------------------------|-----------------------------||
|---------------------------|----------------------------o||
|-------10------------------|-----------------------------||
|-----8---------------------|-----7-----------------------||
|-0-------------------------|-0-----0--------------------o||
|---------------------------|-----------------------------||
|
|                   >     >                    >     >
|               PM----|   PM               PM----|   PM
| S S E  E  S S S S E S S E   S S E E  S S S S E S S E    3x
|---------------------------|-----------------------------||
|---------------------------|----------------------------o||
|-9-9-9-----9-9\------------|-9-9-9----9-9\---------------||
|-8-8-8-----8-8S0-0-0-0-0-0-|-8-8-8----8-8S0-0-0-0-0-0----||
|-8-8-8-----8-8S0-0-0-0-0-0-|-8-8-8----8-8S0-0-0-0-0-0---o||
|-8-8-8-----8-8S0-0-0-0-0-0-|-8-8-8----8-8S0-0-0-0-0-0----||


   11:53
    E/Bb         D5           E/Bb         D5
    Gtrs I, II
                     >   >                     >   >
             PM  PM------|             PM  PM------|
    S S E. S S S S S E S E.   S S E. S S S S S E S E.
||--0-0-0------0------------|-0-0-0------0------------|
||o-x-x-x------x------------|-x-x-x------x------------|
||--9-9-9----9-9\-----------|-9-9-9----9-9\-----------|
||--8-8-8----8-8S0-0-0-0-0--|-8-8-8----8-8S0-0-0-0-0--|
||o-8-8-8----8-8S0-0-0-0-0--|-8-8-8----8-8S0-0-0-0-0--|
||--8-8-8----8-8S0-0-0-0-0--|-8-8-8----8-8S0-0-0-0-0--|


  E/Bb         D5           E/Bb         D5  E/Bb
                   >   >
           PM  PM------|             PM  PM|
  S S E. S S S S S E S E.   S S E. S S S S S S S S S S S
|-0-0-0------0------------|-0-0-0------0-----0-0-0-0-0-0----|
|-x-x-x------x------------|-x-x-x------x-----x-x-x-x-x-x----|
|-9-9-9----9-9\-----------|-9-9-9----9-9\----9-9-9-9-9-9----|
|-8-8-8----8-8S0-0-0-0-0--|-8-8-8----8-8S0-0-8-8-8-8-8-8----|
|-8-8-8----8-8S0-0-0-0-0--|-8-8-8----8-8S0-0-8-8-8-8-8-8----|
|-8-8-8----8-8S0-0-0-0-0--|-8-8-8----8-8S0-0-8-8-8-8-8-8----|


  E/Bb         D5           E/Bb         D5
                   >   >                     >   >
           PM  PM------|             PM  PM------|
  S S E. S S S S S E S E.   S S E. S S S S S E S E.
|-0-0-0------0------------|-0-0-0------0------------|
|-x-x-x------x------------|-x-x-x------x------------|
|-9-9-9----9-9\-----------|-9-9-9----9-9\-----------|
|-8-8-8----8-8S0-0-0-0-0--|-8-8-8----8-8S0-0-0-0-0--|
|-8-8-8----8-8S0-0-0-0-0--|-8-8-8----8-8S0-0-0-0-0--|
|-8-8-8----8-8S0-0-0-0-0--|-8-8-8----8-8S0-0-0-0-0--|


                           1.
  E/Bb         D5           E/Bb         D5
                   >   >                     >   >
           PM  PM------|             PM  PM------|
  S S E. S S S S S E S E.   S S E. S S S S S E S E.
|-0-0-0------0------------|-0-0-0------0-------------||
|-x-x-x------x------------|-x-x-x------x------------o||
|-9-9-9----9-9\-----------|-9-9-9----9-9\------------||
|-8-8-8----8-8S0-0-0-0-0--|-8-8-8----8-8S0-0-0-0-0---||
|-8-8-8----8-8S0-0-0-0-0--|-8-8-8----8-8S0-0-0-0-0--o||
|-8-8-8----8-8S0-0-0-0-0--|-8-8-8----8-8S0-0-0-0-0---||


  2.
  E/Bb         D5  E/Bb
           PM  PM|
  S S E. S S S S S S S S S S S
|-0-0-0------0-----0-0-0-0-0-0-|
|-x-x-x------x-----x-x-x-x-x-x-|
|-9-9-9----9-9\----9-9-9-9-9-9-|
|-8-8-8----8-8S0-0-8-8-8-8-8-8-|
|-8-8-8----8-8S0-0-8-8-8-8-8-8-|
|-8-8-8----8-8S0-0-8-8-8-8-8-8-|


    E/Bb         D5             E/Bb         D5  E/Bb
                     >   >
             PM  PM------|               PM  PM|
    S S E. S S S S S E S E.  3x S S E. S S S S S S S S S S S
||--0-0-0------0-------------||-0-0-0------0-----0-0-0-0-0-0-|
||o-x-x-x------x------------o||-x-x-x------x-----x-x-x-x-x-x-|
||--9-9-9----9-9\------------||-9-9-9----9-9\----9-9-9-9-9-9-|
||--8-8-8----8-8S0-0-0-0-0---||-8-8-8----8-8S0-0-8-8-8-8-8-8-|
||o-8-8-8----8-8S0-0-0-0-0--o||-8-8-8----8-8S0-0-8-8-8-8-8-8-|
||--8-8-8----8-8S0-0-0-0-0---||-8-8-8----8-8S0-0-8-8-8-8-8-8-|


   12:49
    Dsus2
    Gtr I
    S S S S S S S S S S S S S S S S
||--0-0-0-0-0-0-0-0-0-0-0-0-0-0-0-0-||
||o-x-x-x-x-x-x-x-x-x-x-x-x-x-x-x-x-||
||--7-7-7-7-7-7-7-7-7-7-7-7-7-7-7-7s||
||--x-x-x-x-x-x-x-x-x-x-x-x-x-x-x-x-||
||o-5-5-5-5-5-5-5-5-5-5-5-5-5-5-5-5s||
||----------------------------------||
|
|   Gtr II
|   S S S S S S S S S S S S S S S S
||--0-0-0-0-0-0-0-0-0-0-0-0-0-0-0-0-||
||o-x-x-x-x-x-x-x-x-x-x-x-x-x-x-x-x-||
||--7-7-7-7-7-7-7-7-7-7-7-7-7-7-7-7s||
||--x-x-x-x-x-x-x-x-x-x-x-x-x-x-x-x-||
||o-5-5-5-5-5-5-5-5-5-5-5-5-5-5-5-5s||
||----------------------------------||


  C
   S  S  S  S  S  S  S  S  S  S  S  S  S  S  S  S
|--0--0--0--0--0--0--0--0--0--0--0--0--0--0--0--0---|
|--x--x--x--x--x--x--x--x--x--x--x--x--x--x--x--x---|
|-17-17-17-17-17-17-17-17-17-17-17-17-17-17-17-17s==|
|--x--x--x--x--x--x--x--x--x--x--x--x--x--x--x--x---|
|-15-15-15-15-15-15-15-15-15-15-15-15-15-15-15-15s==|
|---------------------------------------------------|
|
|  S  S  S  S  S  S  S  S  S  S  S  S  S  S  S  S
|--0--0--0--0--0--0--0--0--0--0--0--0--0--0--0--0---|
|--x--x--x--x--x--x--x--x--x--x--x--x--x--x--x--x---|
|-17-17-17-17-17-17-17-17-17-17-17-17-17-17-17-17s==|
|--x--x--x--x--x--x--x--x--x--x--x--x--x--x--x--x---|
|-15-15-15-15-15-15-15-15-15-15-15-15-15-15-15-15s==|
|---------------------------------------------------|


  Dsus2
  S S S S S S S S S S S S S S S S
|-0-0-0-0-0-0-0-0-0-0-0-0-0-0-0-0-||
|-x-x-x-x-x-x-x-x-x-x-x-x-x-x-x-x-||
|-7-7-7-7-7-7-7-7-7-7-7-7-7-7-7-7s||
|-x-x-x-x-x-x-x-x-x-x-x-x-x-x-x-x-||
|-5-5-5-5-5-5-5-5-5-5-5-5-5-5-5-5s||
|---------------------------------||
|
| S S S S S S S S S S S S S S S S
|-0-0-0-0-0-0-0-0-0-0-0-0-0-0-0-0-||
|-x-x-x-x-x-x-x-x-x-x-x-x-x-x-x-x-||
|-7-7-7-7-7-7-7-7-7-7-7-7-7-7-7-7s||
|-x-x-x-x-x-x-x-x-x-x-x-x-x-x-x-x-||
|-5-5-5-5-5-5-5-5-5-5-5-5-5-5-5-5s||
|---------------------------------||


  G/C
   S  S  S  S  S  S  S  S  S  S  S  S  S  S  S  S  4x
|--0--0--0--0--0--0--0--0--0--0--0--0--0--0--0--0--||
|--x--x--x--x--x--x--x--x--x--x--x--x--x--x--x--x-o||
|-12-12-12-12-12-12-12-12-12-12-12-12-12-12-12-12--||
|--x--x--x--x--x--x--x--x--x--x--x--x--x--x--x--x--||
|-10-10-10-10-10-10-10-10-10-10-10-10-10-10-10-10-o||
|--------------------------------------------------||
|
|  S  S  S  S  S  S  S  S  S  S  S  S  S  S  S  S  4x
|--0--0--0--0--0--0--0--0--0--0--0--0--0--0--0--0--||
|--x--x--x--x--x--x--x--x--x--x--x--x--x--x--x--x-o||
|-17-17-17-17-17-17-17-17-17-17-17-17-17-17-17-17--||
|--x--x--x--x--x--x--x--x--x--x--x--x--x--x--x--x--||
|-15-15-15-15-15-15-15-15-15-15-15-15-15-15-15-15-o||
|--------------------------------------------------||


   13:33
    E/Bb        D5                      E/Bb        D5
    Gtrs I, II
    S S S S S S H    +E    +W           S S S S S S H    +E    +W      4x
||--0-0-0-0-0-0----------|------------|-0-0-0-0-0-0----------|---------||
||o-x-x-x-x-x-x----------|------------|-x-x-x-x-x-x----------|--------o||
||--9-9-9-9-9-9----------|------------|-9-9-9-9-9-9----------|---------||
||--8-8-8-8-8-8-0----(0)-|-(0)--------|-8-8-8-8-8-8-0----(0)-|-(0)-----||
||o-8-8-8-8-8-8-0----(0)-|-(0)--------|-8-8-8-8-8-8-0----(0)-|-(0)----o||
||--8-8-8-8-8-8-0----(0)-|-(0)--------|-8-8-8-8-8-8-0----(0)-|-(0)-----||


   14:17
    E/Bb        D5            E/Bb        D5
    Gtrs I, II
    S S S S S S H       +E    S S S S S S H       +E
||--0-0-0-0-0-0-------------|-0-0-0-0-0-0-------------|
||o-x-x-x-x-x-x-------------|-x-x-x-x-x-x-------------|
||--9-9-9-9-9-9-------------|-9-9-9-9-9-9-------------|
||--8-8-8-8-8-8-0-------(0)-|-8-8-8-8-8-8-0-------(0)-|
||o-8-8-8-8-8-8-0-------(0)-|-8-8-8-8-8-8-0-------(0)-|
||--8-8-8-8-8-8-0-------(0)-|-8-8-8-8-8-8-0-------(0)-|
|
|   Gtr III
|   E   E   E   E E E E  E    E   E   E   E E E E  E
||--------------------------|-------------------------|
||o---------5-------5-------|-5-----------5-----5-----|
||--7---7-------7-7---7--7--|-----7---7-----7-7----7--|
||--------------------------|-------------------------|
||o-------------------------|-------------------------|
||--------------------------|-------------------------|


                              Q=76
  E/Bb        D5                  E/Bb        D5
  S S S S S S H       +E   3x     S S S S S S H       +E
|-0-0-0-0-0-0--------------||-||--0-0-0-0-0-0--------------|
|-x-x-x-x-x-x-------------o||-||o-x-x-x-x-x-x--------------|
|-9-9-9-9-9-9--------------||-||--9-9-9-9-9-9--------------|
|-8-8-8-8-8-8-0-------(0)--||-||--8-8-8-8-8-8-0-------(0)--|
|-8-8-8-8-8-8-0-------(0)-o||-||o-8-8-8-8-8-8-0-------(0)--|
|-8-8-8-8-8-8-0-------(0)--||-||--8-8-8-8-8-8-0-------(0)--|
|
| E   E   E   E E E E  E   3x     E   E   E   E E E E  E
|--------------------------||-||---------------------------|
|-----5---------5------5--o||-||o---------5-------5--------|
|-7-------7---7---7-7------||-||--7---7-------7-7---7--7---|
|--------------------------||-||---------------------------|
|-------------------------o||-||o--------------------------|
|--------------------------||-||---------------------------|


  E/Bb        D5            E/Bb        D5
  S S S S S S H       +E    S S S S S S H       +E
|-0-0-0-0-0-0-------------|-0-0-0-0-0-0--------------||
|-x-x-x-x-x-x-------------|-x-x-x-x-x-x-------------o||
|-9-9-9-9-9-9-------------|-9-9-9-9-9-9--------------||
|-8-8-8-8-8-8-0-------(0)-|-8-8-8-8-8-8-0-------(0)--||
|-8-8-8-8-8-8-0-------(0)-|-8-8-8-8-8-8-0-------(0)-o||
|-8-8-8-8-8-8-0-------(0)-|-8-8-8-8-8-8-0-------(0)--||
|
| E   E   E   E E E E  E    E   E   E   E E E E  E
|-------------------------|--------------------------||
|-5-----------5-----5-----|-----5---------5------5--o||
|-----7---7-----7-7----7--|-7-------7---7---7-7------||
|-------------------------|--------------------------||
|-------------------------|-------------------------o||
|-------------------------|--------------------------||


  E/Bb        D5            E/Bb        D5
  S S S S S S H       +E    S S S S S S H       +E
|-0-0-0-0-0-0-------------|-0-0-0-0-0-0-------------|
|-x-x-x-x-x-x-------------|-x-x-x-x-x-x-------------|
|-9-9-9-9-9-9-------------|-9-9-9-9-9-9-------------|
|-8-8-8-8-8-8-0-------(0)-|-8-8-8-8-8-8-0-------(0)-|
|-8-8-8-8-8-8-0-------(0)-|-8-8-8-8-8-8-0-------(0)-|
|-8-8-8-8-8-8-0-------(0)-|-8-8-8-8-8-8-0-------(0)-|
|
| E   E   E   E E E E  E    E   E   E   E E E E  E
|-------------------------|-------------------------|
|---------5-------5-------|-5-----------5-----5-----|
|-7---7-------7-7---7--7--|-----7---7-----7-7----7--|
|-------------------------|-------------------------|
|-------------------------|-------------------------|
|-------------------------|-------------------------|


 14:56
  D5                  E/Bb        D5
  +W                  S S S S S S H       +E
|-------------------|-0-0-0-0-0-0-------------|
|-------------------|-x-x-x-x-x-x-------------|
|-------------------|-9-9-9-9-9-9-------------|
|-(0)---------------|-8-8-8-8-8-8-0-------(0)-|
|-(0)---------------|-8-8-8-8-8-8-0-------(0)-|
|-(0)---------------|-8-8-8-8-8-8-0-------(0)-|
|
|  E  E E E E E E E   E   E   E   E E E E  E
|-------------------|-------------------------|
|-------5-----5-----|-5-----------5-----5-----|
|--7--7---7-7---7-7-|-----7---7-----7-7----7--|
|-------------------|-------------------------|
|-------------------|-------------------------|
|-------------------|-------------------------|


                      E/Bb        D5
  +W                  S S S S S S H       +E
|-------------------|-0-0-0-0-0-0-------------|
|-------------------|-x-x-x-x-x-x-------------|
|-------------------|-9-9-9-9-9-9-------------|
|-(0)---------------|-8-8-8-8-8-8-0-------(0)-|
|-(0)---------------|-8-8-8-8-8-8-0-------(0)-|
|-(0)---------------|-8-8-8-8-8-8-0-------(0)-|
|
|  E  E E E E E E E   E   E   E   E E E E  E
|-------------------|-------------------------|
|-----5-----5-----5-|---------5-------5-------|
|--7----7-7---7-7---|-7---7-------7-7---7--7--|
|-------------------|-------------------------|
|-------------------|-------------------------|
|-------------------|-------------------------|


  D5                  E/Bb        D5
  +W                  S S S S S S H       +E
|-------------------|-0-0-0-0-0-0-------------|
|-------------------|-x-x-x-x-x-x-------------|
|-------------------|-9-9-9-9-9-9-------------|
|-(0)---------------|-8-8-8-8-8-8-0-------(0)-|
|-(0)---------------|-8-8-8-8-8-8-0-------(0)-|
|-(0)---------------|-8-8-8-8-8-8-0-------(0)-|
|
|  E  E E E E E E E   E   E   E   E E E E  E
|-------------------|-------------------------|
|--5------5-----5---|-----5---------5------5--|
|-----7-7---7-7---7-|-7-------7---7---7-7-----|
|-------------------|-------------------------|
|-------------------|-------------------------|
|-------------------|-------------------------|


                      E/Bb        D5
  +W                  S S S S S S H       +E
|-------------------|-0-0-0-0-0-0-------------|
|-------------------|-x-x-x-x-x-x-------------|
|-------------------|-9-9-9-9-9-9-------------|
|-(0)---------------|-8-8-8-8-8-8-0-------(0)-|
|-(0)---------------|-8-8-8-8-8-8-0-------(0)-|
|-(0)---------------|-8-8-8-8-8-8-0-------(0)-|
|
|  E  E E E E E E E   E   E   E   E E E E  E
|-------------------|-------------------------|
|-------5-----5-----|-5-----------5-----5-----|
|--7--7---7-7---7-7-|-----7---7-----7-7----7--|
|-------------------|-------------------------|
|-------------------|-------------------------|
|-------------------|-------------------------|


  D5
  +W                  +W                  +W                  +W
|-------------------|-------------------|-------------------|-------------------|
|-------------------|-------------------|-------------------|-------------------|
|-------------------|-------------------|-------------------|-------------------|
|-(0)---------------|-(0)---------------|-(0)---------------|-(0)---------------|
|-(0)---------------|-(0)---------------|-(0)---------------|-(0)---------------|
|-(0)---------------|-(0)---------------|-(0)---------------|-(0)---------------|
|
|  E  E E E E E E E    E  E E E E E E E    E  E E E E E E E    E  E E E E E E E
|-------------------|-------------------|-------------------|-------------------|
|-----5-----5-----5-|-------5-----5-----|--5------5-----5---|-----5-----5-----5-|
|--7----7-7---7-7---|--7--7---7-7---7-7-|-----7-7---7-7---7-|--7----7-7---7-7---|
|-------------------|-------------------|-------------------|-------------------|
|-------------------|-------------------|-------------------|-------------------|
|-------------------|-------------------|-------------------|-------------------|


  +W                  +W                  +W
|-------------------|-------------------|---------------------*|
|-------------------|-------------------|---------------------*|
|-------------------|-------------------|---------------------*|
|-(0)---------------|-(0)---------------|-(0)-----------------*|
|-(0)---------------|-(0)---------------|-(0)-----------------*|
|-(0)---------------|-(0)---------------|-(0)-----------------*|
|
|  E  E E E E E E E    E  E E E E E E E    E  E E E E E E E
|-------------------|-------------------|---------------------*|
|-------5-----5-----|--5------5-----5---|-----5-----5-----5---*|
|--7--7---7-7---7-7-|-----7-7---7-7---7-|--7----7-7---7-7-----*|
|-------------------|-------------------|---------------------*|
|-------------------|-------------------|---------------------*|
|-------------------|-------------------|---------------------*|



Duration Legend
---------------
W - whole; H - half; Q - quarter; E - 8th; S - 16th; T - 32nd; X - 64th; a - acciaccatura
+ - note tied to previous; . - note dotted; .. - note double dotted
Uncapitalized letters represent notes that are staccato (1/2 duration)
Irregular groupings are notated above the duration line
Duration letters will always appear directly above the note/fret number it represents the
duration for.  Duration letters with no fret number below them represent rests.  Multi-
bar rests are notated in the form Wxn, where n is the number of bars to rest for.  Low
melody durations appear below the staff

Tablature Legend
----------------
 h   - hammer-on
 p   - pull-off
 b   - bend
 pb  - pre-bend
 r   - bend release (if no number after the r, then release immediately)
 /\  - slide into or out of (from/to "nowhere")
 s   - legato slide
 S   - shift slide
 - natural harmonic
[n]  - artificial harmonic
n(n) - tapped harmonic
 ~   - vibrato
 tr  - trill
 T   - tap
 TP  - trem. picking
 PM  - palm muting
\n/  - tremolo bar dip; n = amount to dip
 \n  - tremolo bar down
 n/  - tremolo bar up
/n\  - tremolo bar inverted dip
 =   - hold bend; also acts as connecting device for hammers/pulls
 <> - volume swell (louder/softer)
 x   - on rhythm slash represents muted slash
 o   - on rhythm slash represents single note slash

Misc Legend
-----------
 |  - bar
||  - double bar
||o - repeat start
o|| - repeat end
*|  - double bar (ending)
 :  - bar (freetime)
 $  - Segno
 &  - Coda
Tempo markers -  = BPM(8/16=s8/s16), where s8 = swing 8ths, s16 = swing 16ths

Tap to rate this tab
 
# A B C D E F G H I J K L M N O P Q R S T U V W X Y Z