Song name
# A B C D E F G H I J K L M N O P Q R S T U V W X Y Z

Norma Jean - Scientifiction I A Clot Of Tragedyii A Swarm Of Dedication tab

Song: Scientifiction: I. A Clot of Tragedy/II. A Swarm of Dedication
Band: Norma Jean
Tabber: Jordan Rozell
Tuning: c#,g#,c#,f#,a#,b


0:00-0:13
 B|------8\----------------------8\-------------8\----------------------8\-------4---------|
Bb|------8\----------------------8\-------------8\----------------------8\-------4---------|
Gb|----------------------------------------------------------------------------------------| 
Db|----------------------------------------------------------------------------------------| 
Ab|----------------------------------2-3------------------------------------2-3------2-----|
Db|-1/6-----1/6---0-0-0-0---1/6------2-3---1/6-----1/6---0-0-0-0---1/6------2-3------2-----| X2

0:14-0:27
 B|--------4---------------------|
Bb|--------4---------------------|
Gb|------------------------------|
Db|------------------------------|
Ab|--2--3-----2------------------|
Db|--2--3-----2------------------|X8

0:28-0:33
 B|-12345678910111213141516171819---|------------------------------|
Bb|-12345678910111213141516171819---|0----------------------------0|
Gb|---------------------------------|------------------------------|
Db|---------------------------------|------------------------------|
Ab|---------------------------------|0--1/12-----1/12--1/12-------0|
Db|---------------------------------|---1/12--0--1/12--1/12--0-----|X2

0:34-0:45
 B|-----------------------------------------|
Bb|-----------------------------------------|
Gb|-----------------------------------------|
Db|-----------------------------------------|
Ab|--7--0--7--0--7--8--0--5--0--7--8--0--5--|
Db|--7--0--7--0--7--8--0--5--0--7--8--0--5--|X4

0:46-0:52
 B|------8\----------------------8\-------------8\----------------------8\-------4---------|
Bb|------8\----------------------8\-------------8\----------------------8\-------4---------|
Gb|----------------------------------------------------------------------------------------| 
Db|----------------------------------------------------------------------------------------| 
Ab|----------------------------------2-3------------------------------------2-3------2-----|
Db|-1/6-----1/6---0-0-0-0---1/6------2-3---1/6-----1/6---0-0-0-0---1/6------2-3------2-----| 

0:53-1:06
 B|------8\----------------------8\-------------8\----------------------8\-------4---------|
Bb|------8\----------------------8\-------------8\----------------------8\-------4---------|
Gb|----------------------------------------------------------------------------------------| 
Db|----------------------------------------------------------------------------------------| 
Ab|---------------x-x-x-x------------2-3-----------------x-x-x-x------------2-3------2-----|
Db|-1/6-----------x-x-x-x---1/6------2-3---1/6-----------x-x-x-x---1/6------2-3------2-----|X2

1:07-1:20
 B|--------4---------------------|  |--------------|
Bb|--------4---------------------|  |--------------|
Gb|------------------------------|  |--------------|
Db|------------------------------|  |--------------|
Ab|--2--3-----2------------------|  |--2-2---/12\--|
Db|--2--3-----2------------------|X8|--2-2---/12\--|

1:21-1:32
 B|-----------------------------------------|
Bb|-----------------------------------------|
Gb|-----------------------------------------|
Db|-----------------------------------------|
Ab|--7--0--7--0--7--8--0--5--0--7--8--0--5--|
Db|--7--0--7--0--7--8--0--5--0--7--8--0--5--|X4

1:33-1:44
 B|-----------------------------------------|
Bb|-----------------------------------------|
Gb|-----------------------------------------|
Db|-----------------------------------------|
Ab|-----------------------------------------|
Db|--7--0--7--0--7--8--0--5--0--7--8--0--5--|X4

1:45-2:07
 B|-------------------------------------------------------------------|
Bb|-------------------------------------------------------------------|
Gb|-------------------------------------------------------------------|
Db|-------------------------------------------------------------------|
Ab|--1-1-1-1-1-1-1-1-1-1-1-1-1-1-1-1---0-0-0-0-0-0-0-0-0-0-0-0-0-0-0--|
Db|--1-1-1-1-1-1-1-1-1-1-1-1-1-1-1-1---0-0-0-0-0-0-0-0-0-0-0-0-0-0-0--|X2

2:08-2:30
 B|-------------------------------|  |-------------------------------|
Bb|-------------------------------|  |-------------------------------|
Gb|--14--14--14--14--14-14-14-14--|  |--14--14--14--14--14-14-14-14--|
Db|--12--12--12--12--12-12-12-12--|  |--12--12--12--12--12-12-12-12--|
Ab|--12--12--12--12--12-12-12-12--|  |--13--13--13--13--13-13-13-13--|
Db|-------------------------------|X4|--12--12--12--12--12-12-12-12--|X4

2:31-2:53
 B|-------------------------------| 
Bb|-------------------------------| 
Gb|--14--14--14--14--14-14-14-14--|  
Db|--12--12--12--12--12-12-12-12--|  
Ab|--12--12--12--12--12-12-12-12--|
Db|-------------------------------|X8

2:54-3:04
 B|-----------------|
Bb|-----------------|
Gb|-----------------|
Db|-----------------|
Ab|--0-3-0-3-2-0-0--|
Db|--0-3-0-3-2-0-0--|X4

3:05-3:28
 B|-------------------------------------------------------------------|
Bb|-------------------------------------------------------------------|
Gb|-------------------------------------------------------------------|
Db|-------------------------------------------------------------------|
Ab|--1-1-1-1-1-1-1-1-1-1-1-1-1-1-1-1---0-0-0-0-0-0-0-0-0-0-0-0-0-0-0--|
Db|--1-1-1-1-1-1-1-1-1-1-1-1-1-1-1-1---0-0-0-0-0-0-0-0-0-0-0-0-0-0-0--|X2

3:29-3:33
 B|------------------------------------------------------------| 
Bb|------------------------------------------------------------| 
Gb|--14--14--14--14--14-14-14-14--14--14--14--14--14-14-14-14--|  
Db|--12--12--12--12--12-12-12-12--12--12--12--12--12-12-12-12--| 
Ab|--12--12--12--12--12-12-12-12--12--12--12--12--12-12-12-12--|
Db|------------------------------------------------------------|

3:34-3:46
 B|------------------------------------------------------------| 
Bb|------------------------------------------------------------| 
Gb|--14--14--14--14--14-14-14-14--14--14--14--14--14-14-14-14--|  
Db|--12--12--12--12--12-12-12-12--12--12--12--12--12-12-12-12--| 
Ab|--12--12--12--12--12-12-12-12--12--12--12--12--12-12-12-12--|
Db|------------------------------------------------------------|
  |                                                            |
 B|------------------------------------------------------------|
Bb|------------------------------------------------------------|
Gb|------------------------------------------------------------|
Db|------------------------------------------------------------|
Ab|------------------------------------------------------------|
Db|--0-10/12--12\5--5/8-8\5--3/5--0-10/12--12\5--5/8-8\5--3/5--|

3:47-4:10
 B|------------------------------------------------------------|
Bb|------------------------------------------------------------|
Gb|------------------------------------------------------------|
Db|------------------------------------------------------------|
Ab|--0-10/12--12\5--5/8-8\5--3/5--0-10/12--12\5--5/8-8\5--3/5--|
Db|--0-10/12--12\5--5/8-8\5--3/5--0-10/12--12\5--5/8-8\5--3/5--|X2

4:11-4:35
 B|--------------------------------------------------------------------------|
Bb|--------------------------------------------------------------------------|
Gb|--------------------------------------------------------------------------|
Db|--------------------------------------------------------------------------|
Ab|--0--10/12---12\5---5/8---8\5---3/5---0---10/12---12\5---5/8---8\5---3/5--|
Db|--0--10/12---12\5---5/8---8\5---3/5---0---10/12---12\5---5/8---8\5---3/5--|
  |                                                                          |
 B|--------------------------------------------------------------------------|
Bb|--------------------------------------------------------------------------|
Gb|--------------------------------------------------------------------------|
Db|--------------------------------------------------------------------------|
Ab|--------------------------------------------------------------------------|
Db|--0-14/16--16\10--10/12--12\10--8/10--0-14/16--16\10--10/12--12\10--8/10--|X2

4:35-5:00
 B|--------------------------------------------------------------------------|
Bb|--------------------------------------------------------------------------|
Gb|--------------------------------------------------------------------------|
Db|--------------------------------------------------------------------------|
Ab|--0--10/12---12\5---5/8---8\5---3/5---0---10/12---12\5---5/8---8\5---3/5--|
Db|--0--10/12---12\5---5/8---8\5---3/5---0---10/12---12\5---5/8---8\5---3/5--|X2

5:00-5:25
 B|--------------------------------------------------------------------------|
Bb|--------------------------------------------------------------------------|
Gb|--------------------------------------------------------------------------|
Db|--------------------------------------------------------------------------|
Ab|--------------------------------------------------------------------------|
Db|--0-14/16--16\10--10/12--12\10--8/10--0-14/16--16\10--10/12--12\10--8/10--|X2

5:25-6:21 slowly fades out
 B|--------------------------------------------------------------------------------|
Bb|--------------------------------------------------------------------------------|
Gb|--14--17p14--14--15--17p14--14--17p14--14--15--17p14--14--17p14--14--15--17p14--|
Db|--------------------------------------------------------------------------------|
Ab|--------------------------------------------------------------------------------|
Db|--------------------------------------------------------------------------------|X5

And thats all not too hard i have more just email me if u want them Jordn_the_adict_14@yahoo.com

Peace
Tap to rate this tab
# A B C D E F G H I J K L M N O P Q R S T U V W X Y Z