Song name
# A B C D E F G H I J K L M N O P Q R S T U V W X Y Z

Norther - No Way Back tab

Norther - No way back intro

Tabbed by: Pappi999
Email: pappi999@freemail.hu
Tuning: EADGBE

I think it's a great song, and I've been looking for a tab, but I nowhere could find it.
So I just made it myself(at least the intro:). This is my first tab, so I'm not sure that 
is perfect, but I hope it sounds well for you. If you have anything to say or ask me write 
me an email.


e|-----------------------||------------------------------|
B|-----------------------||-------------------------1----|
G|--------3-----------3--||--------3-----------3--2------|
D|----0-------0---1------||----0-------0---1----------3--|
A|-----------------------||------------------------------|
E|--3---3---3---3---3----||--3---3---3---3---3-----------|


e|-----------------------||------------------------------------|
B|-----------------------||---------------------------3--------|
G|--------3-----------3--||------3---2-3----------2-----2------|
D|----0-------0---1------||----1---1-----1----0-3---3-----3-0--|
A|-----------------------||--3-------------3-------------------|
E|--3---3---3---3---3----||------------------------------------|


e|-----------------------||------------------------------|
B|-----------------------||-------------------------1----|
G|--------3-----------3--||--------3-----------3--2------|
D|----0-------0---1------||----0-------0---1----------3--|
A|-----------------------||------------------------------|
E|--3---3---3---3---3----||--3---3---3---3---3-----------|


e|-----------------------||------------------------------|
B|-----------------------||-------------------------1----|
G|--------3-----------3--||--------3-----------3--2------|
D|----0-------0---1------||----0-------0---1----------3--|
A|-----------------------||------------------------------|
E|--3---3---3---3---3----||--3---3---3---3---3-----------|


e|-----------------------||--------------------------------------|
B|-----------------------||---------------------------3----------|
G|--------3-----------3--||------3---2-3----------2-----2--------|
D|----0-------0---1------||----1---1-----1----0-3---3-----3-1-0--|
A|-----------------------||--3-------------3---------------------|
E|--3---3---3---3---3----||--------------------------------------|

The outro is the same. That's all I have now...
Tap to rate this tab
 
# A B C D E F G H I J K L M N O P Q R S T U V W X Y Z