Song name
# A B C D E F G H I J K L M N O P Q R S T U V W X Y Z

Nothington - Something New chords

Highlighted       Show chord diagrams
Very Simple version of song.

-------------------------------------------------------------------------------
                             SOMETHING NEW - Nothington
-------------------------------------------------------------------------------
Tabbed by: Dschules
E-mail: Dschules@gmail.com

Tuning: Half Step Down

e|------2--3-----0-----------------------333-------------------------------------|
B|-------3---3---3-------------------5---000-------------------------------------|
G|----2--------2----44-4-66-6-7-77--4---000---222--------------------------------|
D|--0---------------44-4-44-4-4-44------000---222--------------------------------|
A|---------------------------------------222---000-------------------------------|
E|---------------------------------------333-------------------------------------|


Verse is just:

Bm-GM
A-GM

Chorus:
D-Bm-GM-A
Tap to rate this tab
# A B C D E F G H I J K L M N O P Q R S T U V W X Y Z