Song name
# A B C D E F G H I J K L M N O P Q R S T U V W X Y Z

Nouvelle Vague - A Forest tab

Song: A forest
Band: Nouvelle Vague
Album: Nouvelle Vague
Tabbed by: Olivar Brito, Coimbra (olivar@iol.pt) 





Intro:

      Gm        A#5  A#   D#maj7    Cadd9

e|-------3---3------------3--3---3--3--3---------|
B|-------3---3--4--4---3--3--3---3--3--3---------|
G|-------3---3--3--3---3--3--3---3--0--0---------|     (2x)
D|--------------3--3---3--1----1----2--2---------|
A|--------------1----1--------------3-----3-4-5--|
E|----3----3-------------------------------------|



Main:

(Come closer and see, See into the trees...)

      Gm        A#5  A#   D#maj7    Cadd9

e|-------3---3------------3--3---3--3--3---------|
B|-------3---3--4--4---3--3--3---3--3--3---------|
G|-------3---3--3--3---3--3--3---3--0--0---------|     (2x)
D|--------------3--3---3--1----1----2--2---------|
A|--------------1----1--------------3-----3-4-5--|
E|----3----3-------------------------------------|






(After "just follow your eyes, just follow your eyes")


          A       A#maj7     D#maj7     A#maj7
             
e|--------0----0-----1----1----------------1---1--|
B|--------3----3-----3----3-----8----8-----3---3--|
G|--------3----3-----2----2-----7----7-----2---2--|
D|------------------------------8----8------------|
A|-----0-----0----1-----1----6-----6----1----1----|
E|------------------------------------------------|


          A       A#maj7     E/D#maj7(?)D#maj7

e|--------0----0-----1----1-----------------------|
B|--------3----3-----3----3-----8----8-----8---8--|
G|--------3----3-----2----2-----7----7-----7---7--|
D|------------------------------8----8-----8---8--|
A|-----0-----0----1-----1----7-----7----6----6----|
E|------------------------------------------------|



(same after: "into the trees, into the trees")
Tap to rate this tab
# A B C D E F G H I J K L M N O P Q R S T U V W X Y Z