Song name
# A B C D E F G H I J K L M N O P Q R S T U V W X Y Z

Nouvelle Vague - Heaven chords

Highlighted       Show chord diagrams
Band: Nouvelle Vague
Song: Heaven
Album: 3

Tabbed by: Olivar Brito, Coimbra




Intro:

      B    F 11b9  G#m     F#     E  E sus2 E      B    F 11b9

e|----x------x------x------x------x----x----x------x------x------|
B|----x------x------x------x------x----x----x------x------x------|
G|----6------8------4------5------1----x----1------6------8------|     (2x)
D|----9------8------6------4------2----4----2------9------8------|
A|----9------9------6------4------2----2----2------9------9------|
E|----7------6------4------2------0----0----0------7------6------|


(Heaven, is the whole of the heart
Heaven, don't tear you apart)

      B    F 11b9  G#m     F#     E  E sus2 E      B    F 11b9

e|----x------x------x------x------x----x----x------x------x------|
B|----x------x------x------x------x----x----x------x------x------|
G|----6------8------4------5------1----x----1------6------8------|     (2x)
D|----9------8------6------4------2----4----2------9------8------|
A|----9------9------6------4------2----2----2------9------9------|
E|----7------6------4------2------0----0----0------7------6------|

Main:

(There's too many kings, wanna hold you down...)
And
(There's a song on the air with a "I love you" line...)

      E      B  B maj7 B

e|----x------x----x----x----|
B|----x------4----4----4----|
G|----1------4----3----4----|     (4x)
D|----2------4----4----4----|
A|----2------2----2----2----|
E|----0------x---------x----|


Chorus:

(Heaven, is the whole of the heart
Heaven, don't tear you apart)

      B    F 11b9  G#m     F#     E  E sus2 E      B    F 11b9

e|----x------x------x------x------x----x----x------x------x------|
B|----x------x------x------x------x----x----x------x------x------|
G|----6------8------4------5------1----x----1------6------8------|     (2x)
D|----9------8------6------4------2----4----2------9------8------|
A|----9------9------6------4------2----2----2------9------9------|
E|----7------6------4------2------0----0----0------7------6------|

Tap to rate this tab
 
# A B C D E F G H I J K L M N O P Q R S T U V W X Y Z