Song name
# A B C D E F G H I J K L M N O P Q R S T U V W X Y Z

Nukeateen - Dont Go tab

Tabbed by:Grunge Forever

Artist: Nukeateen
Song:   Don't Go
Album:  Reginald's Revenge

http://myspace.com/nukeateen

This is Don't Go from the band Nukeateen, featuring a very cool bass line and
guitar riff. This is the guitar tab, I'll do the bass seperatly! have fun


(/) Slide Up  (\) Slide Down  (h) Hammer On  (p) Pull Off  (b) Bend (r) Release (v) Vibrato

Intro (hold you hand over the strings

E|--------------------------|
B|--------------------------|
G|-x-x--x-x--x--x-x--x-x--x-|
D|-x-x--x-x--x--x-x--x-x--x-|
A|-x-x--x-x--x--x-x--x-x--x-|
E|-x-x--x-x--x--x-x--x-x--x-|

Then open the E-string when the bass enters

E|--------------------------|
B|--------------------------|
G|-x-x--x-x--x--x-x--x-x--x-|
D|-x-x--x-x--x--x-x--x-x--x-|
A|-x-x--x-x--x--x-x--x-x--x-|
E|-0-0--0-0--0--0-0--0-0--0-|


Intro/Mid 8 Riff

E|------------------------------|
B|------------------------------|
G|--9---9--9--7--7--5--5--5--4--|
D|--9---9--9--7--7--5--5--5--4--|
A|--7---7--7--5--5--3--3--3--2--|
E|------------------------------|


Chorus Riff

E|------------------------------|
B|------------------------------|
G|------------------------------|
D|--2---2--5--5--7--7--7--8--9--|
A|--2---2--5--5--7--7--7--8--9--|
E|--0---0--3--3--5--5--5--6--7--|

Verse

E|------------------------------------------------|
B|------------------------------------------------|
G|------------------------------------------------|
D|--2----2--2----2--2--2----5----5--5----5--5--5--|
A|--2----2--2----2--2--2----5----5--5----5--5--5--|
E|--0----0--0----0--0--0----3----3--3----3--3--3--|

E|------------------------------------------------|
B|------------------------------------------------|
G|--2----2--2----2--2--2----4----4--4----4--4--4--|
D|--2----2--2----2--2--2----4----4--4----4--4--4--|
A|--0----0--0----0--0--0----2----2--2----2--2--2--|
E|------------------------------------------------|

Verse

When I say go away I want you too stay,
I get this feeling and it doesn't go away,

Chorus

Don't Go

Verse 2

When I pull funny faces only to show,
It got so good again and I wanted you to know,

Chorus

Don't Go
Tap to rate this tab
 
# A B C D E F G H I J K L M N O P Q R S T U V W X Y Z