Song name
# A B C D E F G H I J K L M N O P Q R S T U V W X Y Z

10 Years - Shelter tab

Song: Shelter
Band: 10 YEARS!!!
Album: Killing All That Holds You
Tuning: Dropped Db [or Dropped C#...whatever...]
        (Lowest to highest)/Db, Ab, Db, Gb, Bb, Eb

There was another tab for this song, so unfortunately I couldn't
be the first to tab this one...but oh well. There were some mistakes
on the other tab, but there still might be some with mine. So, if there
are any mistakes, do tell me, cause I'm planning on playing this song
with my band as a cover for a couple of open mikes/shows. So yea...
my e-mail is ten_years_rockz@yahoo.com if you guys have any corrections
or suggestions. CHEERS!!!

Intro & Verses 1 & 2:
   [x4]             [x3]
Eb|----------------|-----------------|---------------------------------|
Bb|----------------|-----------------|---------------------------------|
Gb|----------------|-------11------7-|-------11------7---7-----7-------|
Db|-------5-4----4-|---9------9----7-|---9------9----7-----7-----7---7-|
Ab|-----2-----5--5-|-7---7------7--5-|-7---7------7--5-5-----5-----5---|
Db|-0h2----------0-|-----------------|---------------------------------|
         let ring^         let ring^


Pre-Chorus:

Eb|--------------------------------------------------------------------|
Bb|--------------------------------------------------------------------|
Gb|---------------------------------------------2p0--------------------|
Db|-------5-4----4-44444-44---------5-4----4-44-----4------------------|
Ab|-0h2-2-----5--5-55555-55---0h2-2-----5--5-55------------------------|
Db|-0h2----------0-00000-00---0h2----------0-00------------------------|

Eb|-----------------------------------------------|
Bb|-----------------------------------------------|
Gb|-----------------------------------------------|
Db|-------5-4----4-44444-44---------5-4----4-4444-|
Ab|-0h2-2-----5--5-55555-55---0h2-2-----5--5-5555-|
Db|-0h2----------0-00000-00---0h2----------0-0000-|


Chorus:
   [x4]
Eb|-----------------------------------2-2222-|-----------------|
Bb|---------------1-11111-11----------3-3333-|---3-----3-------|
Gb|---------------0-00000-00----------2-2222-|-2---2-----2---2-|
Db|-2--5--7-7777--2-22222-22--5-5555--0-0000-|-------0-----0---|
Ab|-2--5--7-7777--3-33333-33--5-5555---------|-----------------|
Db|-2--5--7-7777--------------5-5555---------|-----------------|
                                              ^DO NOT PLAY before solo!

[Verse 2]
[2nd chorus]


AWESOME SOLO!

Eb|------------------------------10-10-10/12-12-12------------------|
Bb|----------------------12-----------------------------------------|
Gb|---12-11h12p11----9------12-9------------------------------------|
Db|-9-------------12------------------------------------------------|
Ab|-----------------------------------------------------------------|
Db|-----------------------------------------------------------------|

Eb|-12----------12-10-----------------------------------------------|
Bb|----14-14-14-------14-10-10-10-10/12-----------------------------|
Gb|-------------------------------------12-11-----------------------|
Db|-------------------------------------------12-14-----------------|
Ab|-----------------------------------------------------------------|
Db|-----------------------------------------------------------------|

Eb|-----------10-10-10/12-12-12-12----------12-10-------------------|
Bb|---12---------------------------14-14-14-------14-10-10----------|
Gb|------12-9-------------------------------------------------------|
Db|-0---------------------------------------------------------------|
Ab|-----------------------------------------------------------------|
Db|-----------------------------------------------------------------|

Eb|-----------------------------------------------------------------|
Bb|-----------------------------------------------------------------|
Gb|-2/4---------4-----4-----7-4---7-4---7-4-----7-5---7-5-----------|
Db|-----5-4-------5-----5-------5-----5-------4-----5-----5-5-4-4-4-|
Ab|---------5-7-----7-----7-----------------7-----------------------|
Db|-----------------------------------------------------------------|

Eb|-----------------------------------------------------------------|
Bb|-----------------------------------------------------------------|
Gb|-------------4-----4-----7-4---7-4---7-4-----7-5---7-5-----------|
Db|-4h5p4---------5-----5-------5-----5-------4-----5-----5-5-4-4-4-|
Ab|-------7-5-7-----7-----7-----------------7-----------------------|
Db|-----------------------------------------------------------------|

[Play FULL chorus again]

Ending:
   [x3]             [play slower]
Eb|----------------|-----------------|
Bb|----------------|-----------------|
Gb|----------------|-------11------7-|
Db|-------5-4----4-|---9------9----7-|
Ab|-----2-----5--5-|-7---7------7--5-|
Db|-0h2----------0-|-----------------|
         let ring^         let ring^


Ok, that's that! Any corrections at all? My email is
ten_years_rockz@yahoo.com, and again...CHEERS MY 10 YEARS LOVERS!!!
Tap to rate this tab
 
# A B C D E F G H I J K L M N O P Q R S T U V W X Y Z