Song name
# A B C D E F G H I J K L M N O P Q R S T U V W X Y Z

10 Years - So Long Goodbye tab

This Song is my first Tab. Comments are always welcomed. The song is in Half-Step.
You will have to figure out the strumming pattern.

Intro/Verse
|-----------------------------------------------|
|-----------------------------------1-----------|
|--------5-----------4--------------2-----------|
|--7-----------3------------5-------2-----------|
|----7-7---------5-5--------5-------------------|
|---------------------------3-------------------|

Pre-Chorus
|-----------------------------------------------|
|--------1-----------1--------------------------|
|--------2-----------2--------------------------|
|--5-----2-----5-----2--------------------------|
|--5-----------5--------------------------------|
|--3-----------3--------------------------------|

Chorus
(C) (G)              (Am)
So long this is good-bye.
(C)                (G)             (Am)
Maybe we'll meet again in another life.
(C)     (G)            (Am)
Like strangers passing by.
(C)                (G)                  (Am)
Maybe we'll see clearly in a different light.


Intro/Verse                                  3RD time Then into the G/Am
|-----------------------------------------------|-------------------------|
|-----------------------------------1-----------|-------------------------|
|--------5-----------4--------------2-----------|-------------------------|
|--7-----------3------------5-------2-----------|---14----14----12----12--|
|----7-7---------5-5--------5-------------------|-12----12----14----14----|
|---------------------------3-------------------|-------------------------|

Pre-Chorus
|-----------------------------------------------|
|--------1-----------1--------------------------|
|--------2-----------2--------------------------|
|--5-----2-----5-----2--------------------------|
|--5-----------5--------------------------------|
|--3-----------3--------------------------------|

Chorus
(C) (G)              (Am)
So long this is good-bye.
(C)                (G)             (Am)
Maybe we'll meet again in another life.
(C)     (G)            (Am)
Like strangers passing by.
(C)                (G)                  (Am)
Maybe we'll see clearly in a different light.


Brigde: Strum the same chords used in the Chorus. Then back into Pre-Chours.

Chorus
(C) (G)              (Am)
So long this is good-bye.
(C)                (G)             (Am)
Maybe we'll meet again in another life.
(C)     (G)            (Am)
Like strangers passing by.
(C)                (G)                  (Am)
Maybe we'll see clearly in a different light.


Fill after the 2nd line.          Fill after 3rd line.
|-0-0-0-0-0-------------------------------------------------------------|
|-3-3-3p1p0-----------------------1p0-0-1p0-----------------------------|
|-----------------------------------------------------------------------|
|-----------------------------------------------------------------------|
|-----------------------------------------------------------------------|
|-----------------------------------------------------------------------|

Intro/Verse(2X)


End:
Tap to rate this tab
 
# A B C D E F G H I J K L M N O P Q R S T U V W X Y Z