Song name
# A B C D E F G H I J K L M N O P Q R S T U V W X Y Z

12 Stones - Stay tab

Gtr I (C G C F A D) - 'Untitled'
Gtr II (C G C F A D) - 'Untitled'
Gtr III (C G C F A D) - 'Untitled'


   Verse
    Q=77
    (Bm)        (A5)            G5
   4/4
    Gtr I
    E S S S E S E S S S S S S   E. S S S E +E  E S S S S  4x
||----------------------------|---------------------------||
||o---------------------------|----8---------------8-----o||
||----------------------------|----7-----7-(7)-7---7------||
||----4---4h5-5---2---2h4-4---|----5-x-x-5-(5)-5---5-x-x--||
||o-2---2-------0---0-------0-|-5--5-x-x-5-(5)-5-5---x-x-o||
||----------------------------|-5--5-x-x-5-(5)-5-5---x-x--||


 Pre-Chorus
  $
  A5                       B5
   Q   E.  S S S  E +E   S  S
|-----------------------------|
|-10--10--10-----10-----10s12-|
|--9---9---9------9-(9)--9s11-|
|--7---7---7------7-(7)--7s=9-|
|--7---7---7-x-x--7-(7)--7s=9-|
|--7---7---7-x-x--7-(7)--7s=9-|


                              G5              A5
   Q  E  E  +S   S S S  E E   Q  E. S S S E S  S  E
|---------------------------|----5--------5----------|
|-12----12-(12)-12-----12---|-8--8--------8---10-10--|
|-11----11-(11)-11-----11---|-7--7--------7----9--9--|
|--9-----9--(9)--9------9-9s|=5--5--5-x-x-5-5s=7--7--|
|--9--9--9--(9)--9-x-x--9-9s|=5--5--5-x-x-5-5s=7--7--|
|--9--9--9--(9)--9-x-x--9-9s|=5--5--5-x-x-5-5s=7--7--|


                                                    B5
   Q   E.  S S S  E +Q      Q   E.  S S S  E +E   S  S
|----------7------7------|-----------------------------|
|-10--10--10-----10------|-10--10--10-----10-----10s12-|
|--9---9---9------9-(9)--|--9---9---9------9-(9)--9s11-|
|--7---7---7------7-(7)--|--7---7---7------7-(7)--7s=9-|
|--7---7---7-x-x--7-(7)--|--7---7---7-x-x--7-(7)--7s=9-|
|--7---7---7-x-x--7-(7)--|--7---7---7-x-x--7-(7)--7s=9-|


   Q  E  E  +S   S S S  E E
|----------------------------|
|-12----12-(12)-12-----12----|
|-11----11-(11)-11-----11----|
|--9-----9--(9)--9------9-9s=|
|--9--9--9--(9)--9-x-x--9-9s=|
|--9--9--9--(9)--9-x-x--9-9s=|


  G5              A5
  Q  E. S S S E S  S  E    Q    E.  S S S  E S S  E
|----5--------5---------|-----------------------------|
|-8--8--------8---10-10-|-10---10--10-----10-----10---|
|-7--7--------7----9--9-|--9----9---9------9-9-9--9---|
|-5--5--5-x-x-5-5s=7--7-|--7----7---7------7-7-7--7---|
|-5--5--5-x-x-5-5s=7--7-|--7----7---7-x-x--7-7-7--7---|
|-5--5--5-x-x-5-5s=7--7-|--7----7---7-x-x--7-7-7--7---|
|
|                                            Gtr II
| W                        H.                S S  S S
|-----------------------|-----------------------------|
|-----------------------|-----------------------------|
|-----------------------|-----------------------------|
|-----------------------|--------------------x-x--7-7-|
|-----------------------|--------------------x-x--7-7-|
|-----------------------|--------------------x-x--7-7-|


 Chorus
  G5          A5    B5            D5       E5
  Gtrs II, III
  Q  E. S S S E +E  E   +Q   Q  S  E  S  S  S  E
|---------------------|---------------------------|
|---------------------|---------------------------|
|---------------------|---------------------------|
|-5--5--5-x-x-7-(7)-9-|-(9)--9--x-12-12-12s14-14\-|
|-5--5--5-x-x-7-(7)-9-|-(9)--9--x-12-12-12s14-14\-|
|-5--5--5-x-x-7-(7)-9-|-(9)--9--x-12-12-12s14-14\-|


  G5          A5    B5              D5 C#5B5C#5B5C#5D5
  Q  E. S S S E +E  E   S e S e S e  S  S S  S S  S  S
|---------------------|--------------------------------|
|---------------------|--------------------------------|
|---------------------|--------------------------------|
|-5--5--5-x-x-7-(7)-9-|-9-9-9-9-9-9-12-11-9-11-9-11s12-|
|-5--5--5-x-x-7-(7)-9-|-9-9-9-9-9-9-12-11-9-11-9-11s12-|
|-5--5--5-x-x-7-(7)-9-|-9-9-9-9-9-9-12-11-9-11-9-11s12-|


  G5            A5
  E E S  E   S  E E S  E   S
|-----------------------------|
|-----------------------------|
|-----------------------------|
|-5-5-----------7-7-----------|
|-5-5-----------7-7-----------|
|-5-5-x-<5>-<5>-7-7-x-<7>-<7>-|
|
| W
|-----------------------------|
|-----------------------------|
|-----------------------------|
|-----------------------------|
|-----------------------------|
|-----------------------------|


                  To Coda
  B5      D5       E5          G5  G5   A5
                               Gtr II
  Q  Q  S  E  S  S  S  S  S    Q   Q  E E +Q
|----------------------------|----------------------|
|----------------------------|----------------------|
|----------------------------|----------------------|
|-9--9--x-12-12-12s14-14-14\-|-5---5--x-7-(7)-------|
|-9--9--x-12-12-12s14-14-14\-|-5---5--x-7-(7)-------|
|-9--9--x-12-12-12s14-14-14\-|-5---5--x-7-(7)-------|
|
|                              Gtr III
| W                            H.          S  S S S
|----------------------------|----------------------|
|----------------------------|----------------------|
|----------------------------|----------------------|
|----------------------------|--------------------7-|
|----------------------------|----------------7-9---|
|----------------------------|----------------------|


 Guitar Solo
  B5                   A5          G5
  Q       E.     S S S E     +E    E
|--------------------------------------|
|--------------------------------------|
|--------------------------------------|
|-9-------9------9-x-x-7-----(7)---5---|
|-9-------9------9-x-x-7-----(7)---5---|
|-9-------9------9-x-x-7-----(7)---5---|
|
| S S +E  E  +S  S S E   +S  +S  S S S
|--------------------------------------|
|--------------------------------------|
|--------------------------------------|
|-7h9-(9)-9--(9)-7-9p7---(7)-(7)-7-9-7-|
|--------------------------------------|
|--------------------------------------|


  +Q        E.    S  S  S E   E         S  S
|--------------------------------------------|
|--------------------------------------------|
|--------------------------------------------|
|-(5)-------5-----5--x--x-5---5---------x--x-|
|-(5)-------5-----5--x--x-5---5---------x--x-|
|-(5)-------5-----5--x--x-5---5---------x--x-|
|
|  E  +S  S S S E   +S  S S S S +S     +E
|--------------------------------------------|
|--------------------------------------------|
|---------7-----7---(7)-7-9-7-9-(9)b11r(9)---|
|--5--(5)---5s7------------------------------|
|--------------------------------------------|
|--------------------------------------------|


  B5                             A5         G5
  Q          E.       S  S     S  E    +E   E
|-----------------------------------------------|
|-----------------------------------------------|
|-----------------------------------------------|
|-9----------9--------9--x-----x--7----(7)--5---|
|-9----------9--------9--x-----x--7----(7)--5---|
|-9----------9--------9--x-----x--7----(7)--5---|
|
| S  S S  S  E   +S   S  T  T  S  S  S  S S S S
|-----------------------------------------------|
|-----------10--(10)-10-12p10----10-------------|
|-9h11-9h11-------------------11----11--9p7-9p7-|
|-----------------------------------------------|
|-----------------------------------------------|
|-----------------------------------------------|


  +Q               E.       S   S  S  E    E   S S
|---------------------------------------------------|
|---------------------------------------------------|
|---------------------------------------------------|
|-(5)--------------5--------5---x--x--5----5---x-x--|
|-(5)--------------5--------5---x--x--5----5---x-x--|
|-(5)--------------5--------5---x--x--5----5---x-x--|
|
|                         ~~~~~~~~~
|  E      +S   S   S   S  E    +S  S  S S  S S E
|---------------------------------------------------|
|---------------------------------------------------|
|-11b12==(11)-11r-11--12-11---(11)-9-11-9-11-9-7----|
|---------------------------------------------------|
|---------------------------------------------------|
|---------------------------------------------------|


 Verse
  (Bm)        (A5)            G5
  Gtr I
  E S S S E S E S S S S S S    E. S S S E +E  E S S S S
|---------------------------|---------------------------|
|---------------------------|---------------------8-----|
|---------------------------|-----7-----7-(7)-7---7-----|
|---4---4h5-5---2---2h4-4---|-----5-x-x-5-(5)-5---5-x-x-|
|-2---2-------0---0-------0-|--5--5-x-x-5-(5)-5-5---x-x-|
|---------------------------|--5--5-x-x-5-(5)-5-5---x-x-|
|
| Gtr III
| >
| W                           +W
|---------------------------|---------------------------|
|---------------------------|---------------------------|
|---------------------------|---------------------------|
|-9-------------------------|-(9)-----------------------|
|---------------------------|---------------------------|
|---------------------------|---------------------------|


   Verse 2
                                           D.S. al Coda
    (Bm)        (A5)            G5
    E S S S E S E S S S S S S   E. S S S E +E  E S S S S  3x
||----------------------------|---------------------------||
||o---------------------------|--------------------8-----o||
||----------------------------|----7-----7-(7)-7---7------||
||----4---4h5-5---2---2h4-4---|----5-x-x-5-(5)-5---5-x-x--||
||o-2---2-------0---0-------0-|-5--5-x-x-5-(5)-5-5---x-x-o||
||----------------------------|-5--5-x-x-5-(5)-5-5---x-x--||


  &
  G5      A5 B5
                 PM------------|
  Q  Q  E Q  E   S S S S S S S S E. E. E
|--------------|-------------------------|
|--------------|-------------------------|
|--------------|-------------------------|
|-5--5--x-7--9-|-----------------9--9--9-|
|-5--5--x-7--9-|-9-9-9-9-9-9-9-9-9--9--9-|
|-5--5--x-7--9-|-9-9-9-9-9-9-9-9-9--9--9-|


 Bridge
  E5      G5        B5
  E E E E E E E E   E E E E E E E E
|-----------------|-----------------|
|-----------------|-----------------|
|-----------------|-----------------|
|-2-2-2-2-5-5-5-5-|-9-9-9-9-9-9-9-9-|
|-2-2-2-2-5-5-5-5-|-9-9-9-9-9-9-9-9-|
|-2-2-2-2-5-5-5-5-|-9-9-9-9-9-9-9-9-|


  E5      G5        B5        N.C.
  E E E E E E E E   E E E E S  S  S S  S  S E
|-----------------|----------------------------|
|-----------------|----------------------------|
|-----------------|----------------------------|
|-2-2-2-2-5-5-5-5-|-9-9-9-9-9------------------|
|-2-2-2-2-5-5-5-5-|-9-9-9-9-9------------------|
|-2-2-2-2-5-5-5-5-|-9-9-9-9-9-12-11-9-12-11-9\-|


  E5      G5        B5
  E E E E E E E E   E E E E E E E E
|-----------------|-----------------|
|-----------------|-----------------|
|-----------------|-----------------|
|-2-2-2-2-5-5-5-5-|-9-9-9-9-9-9-9-9-|
|-2-2-2-2-5-5-5-5-|-9-9-9-9-9-9-9-9-|
|-2-2-2-2-5-5-5-5-|-9-9-9-9-9-9-9-9-|


  E5      G5        B5        D5       E5
  E E E E E E E E   E E E E S  E  S  S  S  S  S
|-----------------|------------------------------|
|-----------------|------------------------------|
|-----------------|------------------------------|
|-2-2-2-2-5-5-5-5-|-9-9-9-9-x-12-12-12s14-14-14\-|
|-2-2-2-2-5-5-5-5-|-9-9-9-9-x-12-12-12s14-14-14\-|
|-2-2-2-2-5-5-5-5-|-9-9-9-9-x-12-12-12s14-14-14\-|


 Soft Chorus
  G5          A5      B5                    D5       E5
  Gtr I
  Q  E. S S S  E  +E   E    +E   E  E S S S  E  S  S  S  S  S
|------------------------|-------------------------------------|
|-8--8--8-----10-(10)-12-|-(12)-12-12--------------------------|
|-7--7--7------9--(9)-11-|-(11)-11-11--------------------------|
|-5--5--5-x-x--7--(7)--9-|--(9)--9--9-x-x-x-12-12-12s14-14-14\-|
|-5--5--5-x-x--7--(7)--9-|--(9)--9--9-x-x-x-12-12-12s14-14-14\-|
|-5--5--5-x-x--7--(7)--9-|--(9)--9--9-x-x-x-12-12-12s14-14-14\-|


  G5          A5
  Q  E. S S S  E  S  S  S  S
|----------------------------|
|-8--8--8-----10-10-10-10-10-|
|-7--7--7------9--9--9--9--9-|
|-5--5--5-x-x--7--7--7--7--7-|
|-5--5--5-x-x--7--7--7--7--7-|
|-5--5--5-x-x--7--7--7--7--7-|


  B5
   E.  S  E.  S  S S S  S  S  S  S  S
|--------------------------------------|
|-12--12-12--12-12-----12-12-12-12-12\-|
|-11--11-11--11-11-----11-11-11-11-11\-|
|--9---9--9---9--9-x-x--9--9--9--9--9\-|
|--9---9--9---9--9-x-x--9--9--9--9--9\-|
|--9---9--9---9--9-x-x--9--9--9--9--9\-|


  G5          A5      B5
  Q  E. S S S  E  +E   E    +E   E  E S S S  S  E  E  +E
|------------------------|---------------------------------|
|-8--8--8-----10-(10)-12-|-(12)-12-12-------12-12-12-(12)--|
|-7--7--7------9--(9)-11-|-(11)-11-11-------11-11-11-(11)--|
|-5--5--5-x-x--7--(7)--9-|--(9)--9--9-x-x-x--9--9--9--(9)--|
|-5--5--5-x-x--7--(7)--9-|--(9)--9--9-x-x-x--9--9--9--(9)--|
|-5--5--5-x-x--7--(7)--9-|--(9)--9--9-x-x-x--9--9--9--(9)\-|


  G5          A5      B5
                                     Gtr II
  Q  E. S S S  E  +E   E    +H.      S S S S
|------------------------|-------------------|
|-8--8--8-----10-(10)-12-|-(12)--------------|
|-7--7--7------9--(9)-11-|-(11)--------------|
|-5--5--5-x-x--7--(7)--9-|--(9)------x-x-9-9-|
|-5--5--5-x-x--7--(7)--9-|--(9)------x-x-9-9-|
|-5--5--5-x-x--7--(7)--9-|--(9)------x-x-9-9-|
|
|                          Gtr III
|                            <
| W                          W
|------------------------|-------------------|
|------------------------|-------------------|
|------------------------|-------------------|
|------------------------|---9---------------|
|------------------------|---9---------------|
|------------------------|---9---------------|


 Chorus
  G5          A5    B5            D5       E5
  Gtrs II, III
  Q  E. S S S E +E  E   +Q   Q  S  E  S  S  S  E
|---------------------|---------------------------|
|---------------------|---------------------------|
|---------------------|---------------------------|
|-5--5--5-x-x-7-(7)-9-|-(9)--9--x-12-12-12s14-14\-|
|-5--5--5-x-x-7-(7)-9-|-(9)--9--x-12-12-12s14-14\-|
|-5--5--5-x-x-7-(7)-9-|-(9)--9--x-12-12-12s14-14\-|


  G5          A5    B5              D5 C#5B5C#5B5C#5D5
  Q  E. S S S E +E  E   S e S e S e  S  S S  S S  S  S
|---------------------|--------------------------------|
|---------------------|--------------------------------|
|---------------------|--------------------------------|
|-5--5--5-x-x-7-(7)-9-|-9-9-9-9-9-9-12-11-9-11-9-11s12-|
|-5--5--5-x-x-7-(7)-9-|-9-9-9-9-9-9-12-11-9-11-9-11s12-|
|-5--5--5-x-x-7-(7)-9-|-9-9-9-9-9-9-12-11-9-11-9-11s12-|


  G5            A5              B5      D5       E5
  E E S  E   S  E E S  E   S    Q  Q  S  E  S  S  S  S  S
|-----------------------------|----------------------------|
|-----------------------------|----------------------------|
|-----------------------------|----------------------------|
|-5-5-----------7-7-----------|-9--9--x-12-12-12s14-14-14\-|
|-5-5-----------7-7-----------|-9--9--x-12-12-12s14-14-14\-|
|-5-5-x-<5>-<5>-7-7-x-<7>-<7>-|-9--9--x-12-12-12s14-14-14\-|


  G5      A5 B5
  Q  Q  E Q  E   S S S S S S S S S S S S S S S S
|--------------|---------------------------------|
|--------------|---------------------------------|
|--------------|---------------------------------|
|-5--5--x-7--9-|-9-9-9-9-9-9-9-9-9-9-9-9-9-9-9-9-|
|-5--5--x-7--9-|-9-9-9-9-9-9-9-9-9-9-9-9-9-9-9-9-|
|-5--5--x-7--9-|-9-9-9-9-9-9-9-9-9-9-9-9-9-9-9-9-|


 Outro
  G5      A5        B5                G5      A5        B5
  E E E E E E E E   E E E E E E E E   E E E E E E E E   E E E E E E E E
|-----------------|-----------------|-----------------|------------------|
|-----------------|-----------------|-----------------|------------------|
|-----------------|-----------------|-----------------|------------------|
|-5-5-5-5-7-7-7-7-|-9-9-9-9-9-9-9-9-|-5-5-5-5-7-7-7-7-|-9-9-9-9-9-9-9-9--|
|-5-5-5-5-7-7-7-7-|-9-9-9-9-9-9-9-9-|-5-5-5-5-7-7-7-7-|-9-9-9-9-9-9-9-9--|
|-5-5-5-5-7-7-7-7-|-9-9-9-9-9-9-9-9-|-5-5-5-5-7-7-7-7-|-9-9-9-9-9-9-9-9--|


  G5      A5        B5                G5      A5        B5
                                                        >
  E E E E E E E E   E E E E E E E E   E E E E E E E E   W
|-----------------|-----------------|-----------------|------|
|-----------------|-----------------|-----------------|------|
|-----------------|-----------------|-----------------|------|
|-5-5-5-5-7-7-7-7-|-9-9-9-9-9-9-9-9-|-5-5-5-5-7-7-7-7-|-9----|
|-5-5-5-5-7-7-7-7-|-9-9-9-9-9-9-9-9-|-5-5-5-5-7-7-7-7-|-9----|
|-5-5-5-5-7-7-7-7-|-9-9-9-9-9-9-9-9-|-5-5-5-5-7-7-7-7-|-9----|


  +W           +W
|------------|--------*|
|------------|--------*|
|------------|--------*|
|-(9)--------|-(9)----*|
|-(9)--------|-(9)----*|
|-(9)--------|-(9)----*|




--------------------------------------------------------------------------------


Duration Legend
---------------
W - whole; H - half; Q - quarter; E - 8th; S - 16th; T - 32nd; X - 64th; a - acciaccatura
+ - note tied to previous; . - note dotted; .. - note double dotted
Uncapitalized letters represent notes that are staccato (1/2 duration)
Irregular groupings are notated above the duration line
Duration letters will always appear directly above the note/fret number it represents the
duration for.  Duration letters with no fret number below them represent rests.  Multi-
bar rests are notated in the form Wxn, where n is the number of bars to rest for.  Low
melody durations appear below the staff

Tablature Legend
----------------
 h   - hammer-on
 p   - pull-off
 b   - bend
 pb  - pre-bend
 r   - bend release (if no number after the r, then release immediately)
 /\  - slide into or out of (from/to "nowhere")
 s   - legato slide
 S   - shift slide
 - natural harmonic
[n]  - artificial harmonic
n(n) - tapped harmonic
 ~   - vibrato
 tr  - trill
 T   - tap
 TP  - trem. picking
 PM  - palm muting
\n/  - tremolo bar dip; n = amount to dip
 \n  - tremolo bar down
 n/  - tremolo bar up
/n\  - tremolo bar inverted dip
 =   - hold bend; also acts as connecting device for hammers/pulls
 <> - volume swell (louder/softer)
 x   - on rhythm slash represents muted slash
 o   - on rhythm slash represents single note slash

Misc Legend
-----------
 |  - bar
||  - double bar
||o - repeat start
o|| - repeat end
*|  - double bar (ending)
 :  - bar (freetime)
 $  - Segno
 &  - Coda
Tempo markers -  = BPM(8/16=s8/s16), where s8 = swing 8ths, s16 = swing 16ths


Tap to rate this tab
# A B C D E F G H I J K L M N O P Q R S T U V W X Y Z