Song name
# A B C D E F G H I J K L M N O P Q R S T U V W X Y Z

16 Volt - Keep Sleeping tab

Band: 16 Volt
Song: Keep Sleeping
Album: Supercoolnothing

Tunnig: Drop C (C,G,C,F,A,d)
Tabbed By: Ryan Cook - cool_ryan_08@live.co.uk

Intro
d------------------------------------------------------------------------|
A------------------------------------------------------------------------|
F------------------------------------------------------------------------|
C--0000--0000--00----0000--0000--00----0000--0000--00----0000--0000--00--|
G--0000--0000--00----0000--0000--00----0000--0000--00----0000--0000--00--| X2
C--0000--0000--006---0000--0000--006---0000--0000--006---0000--0000--006-|
P.M----  ----  --    ----  ----  --    ----  ----  --    ----  ----  --

d------------------------------------------------------------------------|
A------------------------------------------------------------------------|
F------------------------------------------------------------------------|
C--0000--0000--006---0000--0000--006---0000--0000--006---0000--0000--006-|
G--0000--0000--006---0000--0000--006---0000--0000--006---0000--0000--006-|
C--0000--0000--006---0000--0000--006---0000--0000--006---0000--0000--006-|

Verse 1
d------------------------------------------------------------------------|
A------------------------------------------------------------------------|
F------------------------------------------------------------------------|
C--0000--0000--00----0000--0000--00----0000--0000--00----0000--0000--00--|
G--0000--0000--00----0000--0000--00----0000--0000--00----0000--0000--00--| X2
C--0000--0000--006---0000--0000--006---0000--0000--006---0000--0000--006-|
P.M----  ----  --    ----  ----  --    ----  ----  --    ----  ----  --

Chorus 1
d------------------------------------------------------------------------|
A------------------------------------------------------------------------|
F------------------------------------------------------------------------|
C-0000--0000--000---10101010--10101010--101010---9999--9999--999---8888--|
G-0000--0000--000---10101010--10101010--101010---9999--9999--999---8888--|
C-0000--0000--000---10101010--10101010--101010---9999--9999--999---8888--|

d---------------------------|
A---------------------------|
F---------------------------|
C-7777--5-3-----------------|
G-7777--5-3-----------------| X2
C-7777--5-3-----------------|

Pre Verse
d---------------------------|
A---------------------------|
F---------------------------|
C--0000--0000---0000--0000--|
G--0000--0000---0000--0000--|
C--0000--0000---0000--0000--|

Verse 2
d------------------------------------------------------------------------|
A------------------------------------------------------------------------|
F------------------------------------------------------------------------|
C--0000--0000--00----0000--0000--00----0000--0000--00----0000--0000--00--|
G--0000--0000--00----0000--0000--00----0000--0000--00----0000--0000--00--| X2
C--0000--0000--006---0000--0000--006---0000--0000--006---0000--0000--006-|
P.M----  ----  --    ----  ----  --    ----  ----  --    ----  ----  --

Pre Chorus
d------------------------------------------------------------------------|
A------------------------------------------------------------------------|
F------------------------------------------------------------------------|
C--0000--0000--006---0000--0000--006---0000--0000--006---0000--0000--006-|
G--0000--0000--006---0000--0000--006---0000--0000--006---0000--0000--006-|
C--0000--0000--006---0000--0000--006---0000--0000--006---0000--0000--006-|

Chorus 2
d------------------------------------------------------------------------|
A------------------------------------------------------------------------|
F------------------------------------------------------------------------|
C-0000--0000--000---10101010--10101010--101010---9999--9999--999---8888--|
G-0000--0000--000---10101010--10101010--101010---9999--9999--999---8888--|
C-0000--0000--000---10101010--10101010--101010---9999--9999--999---8888--|

d---------------------------|
A---------------------------|
F---------------------------|
C-7777--5-3-----------------|
G-7777--5-3-----------------| X6
C-7777--5-3-----------------|

Bridge
d------------------------------------------------------------------------|
A------------------------------------------------------------------------|
F------------------------------------------------------------------------|
C-0000--0000--000---10101010--10101010--101010---9999--9999--999---8888--|
G-0000--0000--000---10101010--10101010--101010---9999--9999--999---8888--|
C-0000--0000--000---10101010--10101010--101010---9999--9999--999---8888--|

d---------------------------|
A---------------------------|
F---------------------------|
C-7777--53------------------|
G-7777--53------------------|
C-7777--53------------------|

Outro
d---------------------------|
A---------------------------|
F---------------------------|
C-0000--0000----------------|
G-0000--0000----------------|
C-0000--0000----------------|
Tap to rate this tab
# A B C D E F G H I J K L M N O P Q R S T U V W X Y Z