Song name
# A B C D E F G H I J K L M N O P Q R S T U V W X Y Z

1974 Ad - Pahilo Junima tab

Help us improve GuitareTab! Take a short survey!
-10-----------------10-----------------|-12-10-12----|-------10--------------|
------------10^(12)----10^(12)-10-8-10-|----------12-|-12-13-----------------|
-------9-12----------------------------|-------------|----------12-----------|
----12---------------------------------|-------------|-----------------------|
---------------------------------------|-------------|-----------------------|
---------------------------------------|-------------|-----------------------|

-------------------------------10-12-12^14-12^14--10-----------10---------|
-----10^(12)-(10)-8-10------10-----------------------10----10-------------|
-12---------------------/11-----------------------------11----------------|
------------------------------------------------------------------12------|
--------------------------------------------------------------------------|
--------------------------------------------------------------------------|

-17^19-17^19-15-14-15-14--------------------------------------------------|
------------------------15------------------------------------------------|
---------------------------14-14^16---------------------------------------|
--------------------------------------------------------------------------|
--------------------------------------------------------------------------|
--------------------------------------------------------------------------|
Related for Pahilo Junima tab