Song name
# A B C D E F G H I J K L M N O P Q R S T U V W X Y Z

22-20s - Im The One tab

normal tunning:


Intro/Verse: Riff
|------------------------|
|-5--3-------------------|
|------4-x(0)--2-2-------|
|------------------5--2--|
|------------------------|
|------------------------|
x4
x4 with drums/bass
x4 as Verse

Chorus:

|----------------------|
|----------------------|
|-5--------------------|
|-5--------------------|
|-3----3--5--7--5--3---|
|----------------------|


Repeat everything

Verse: Riff
|------------------------|
|-5--3-------------------|
|------4-x(0)--2-2-------|
|------------------5--2--|
|------------------------|
|------------------------|
x4
x4 with drums/bass
x4 as Verse

Chorus:

|----------------------|
|----------------------|
|-5--------------------|
|-5--------------------|
|-3----3--5--7--5--3---|
|----------------------|



Hear the song at www.22-20s.com
Tap to rate this tab
 
# A B C D E F G H I J K L M N O P Q R S T U V W X Y Z