Song name
# A B C D E F G H I J K L M N O P Q R S T U V W X Y Z

22-20s - Devil In Me tab

-------------------------------------------------------------------------------
			     DEVIL IN ME - 22-20s
-------------------------------------------------------------------------------
Tabbed by: J Crozier
Email: joecrozier@hotmail.com

Tuning: standard

This song follows the same riff the whole way through. the main riff is:

e|---------------------||
B|---------------------||
G|---------------------||
D|-7-7-777-7-7---0-----||
A|-0-0-000-0-0---------||
E|-------------b8------|| << only a 1/2 bend


and then there is the other bit which is on both the guitar and the keyboard

e|--------------------------||   theres loads of places you can do this bit,
B|--------------------------||   but this probably the easiest on the fingers
G|--14-12-------------------||   :)
D|---------14-(14)14p12-----||
A|----------------------12--||
E|--------------------------||


"i dont live, i just breathe. i dont give, and i dont receive"
e|---(x)-xx-xx-xx--||
B|---(x)-xx-xx-xx--||
G|---(x)-xx-xx-xx--||
D|---(7)-xx-xx-xx--||
A|---(7)-xx-xx-xx--||
E|---(5)-xx-xx-xx--|| for a bit


to be honest i have no idea how to play the solo, i think hes just having some fun with 
wammy pedal. corrections/additions etc. welcome

| /  slide up
| \  slide down
| h  hammer-on
| p  pull-off
| ~  vibrato
| +  harmonic
| x  Mute note
===============================================================================
Tap to rate this tab
# A B C D E F G H I J K L M N O P Q R S T U V W X Y Z