Song name
# A B C D E F G H I J K L M N O P Q R S T U V W X Y Z

2pac - Thugz Mansion Acoustic tab

-------------------------------------------------------------------------------
                        Thugz Mansion (Acoustic)- 2Pac (Feat. Nas)
-------------------------------------------------------------------------------
Tabbed by: Danny Victim Barnett
E-mail: dannybarnett2393@gmail.com

Tuning: Standard E

This is my first tab , it sounds pretty accurate to what is played in the song.

feel free to email me your feedback

e|------x---x---------------------x---------6p3--3----------------------------|
B|------4---4---4h6p4----4--------4---4---4------6p4--------------------------|
G|------5---5---------5-----------3---3--------------5------------------------|
D|------5---5---------------------5---5--------------5------------------------|
A|------x---x------------------3--x---3---------------------------------------|
E|--4-------4-----------------------------------------------------------------|

e|--1--/--3--/---4------1--/--3--/--6---6------------------------------------|
B|--2--/--4--/---6------2--/--4--/--5-----5----------------------------------|
G|--1--/--3--/---5------1--/--3--/--6-------6--------------------------------|
D|--3--/--5--/---6------3--/--5--/--5----------------------------------------|
A|--1--/--3--/---4------1--/--3--/--x----------------------------------------|
E|---------------------------------------------------------------------------|

just repeated over and over and add in little riffs here and there

************************************

| /   slide up
| h   hammer-on
| p   pull-off
| x   Mute note
Tap to rate this tab
# A B C D E F G H I J K L M N O P Q R S T U V W X Y Z