Song name
# A B C D E F G H I J K L M N O P Q R S T U V W X Y Z

3 Doors Down - Be Like That tab

Intro/lyrics
(G)                  (D)                   (Em)               (C)
---------3----------|-----------0--------|-------------0-----|-----------0-----|
--------------3-----|-----3--------3-----|---------3-----3---|--------3----3---|
---0------------0---|--------2-------2---|------0----------0-|------0--------0-|
------0-----------0-|--0---------------0-|---2---------------|----2------------|
--------------------|--------------------|-------------------|--3--------------|
-3------------------|--------------------|-0-----------------|-----------------|


2nd Guitar variation during lyrics
(G)                  (D)                   (Em)               (C)
---------3---------|----------0--------|---------2-2-232---|-------------------|
-------------3-----|----3--------3-----|-----------------3-|--------1--0-010---|
---0-----------0---|-------2-------2---|------0------------|------0----------0-|
------0----------0-|-0---------------0-|---2---------------|----2--------------|
-------------------|-------------------|-------------------|--3----------------|
-3-----------------|-------------------|-0-----------------|-------------------|


chorus
(G)  (D)  (Em) (C)
(G)  (D)  (Em) (C)
(C)  (C)  (G)  (G)
(C)  (C)  (G)  (G)
Tap to rate this tab
# A B C D E F G H I J K L M N O P Q R S T U V W X Y Z