Song name
# A B C D E F G H I J K L M N O P Q R S T U V W X Y Z

30 Seconds To Mars - Kill tab

-------------------------------------------------------------------------------
			     The Kill – 30 Seconds To Mars
-------------------------------------------------------------------------------
Tabbed by: Chelsea
Email: chels_bystereo@hotmail.co.uk

I know there’s lots of tabs been submitted for this but I thought I’d tab it the way 
plays it. Add my msn if you have any questions

Tuning: Standard

Verse 1 Clean

e|------------------------------------------------------------------|
B|------------------------------------------------------------------|
G|-----4-----------------------4---------------4---------------4----|
D|---------5----X4----------5------X4--------5------X4-------4---X4-|
A|---3-------------------5-----------------7---------------2--------|
E|------------------------------------------------------------------|

Overdrive

e|------------------------------------------------------------------|
B|------------------------------------------------------------------|
G|-------5------------7--------------11----------9-----------4------|
D|-----5---X12------7----X12------11—-X7-------9----X12----4---X11--|
A|---3------------5-------------9------------7-----------2----------|
E|------------------------------------------------------------------|

Verse 2 Repeat Twice

e|------------------------------------------------------------------|
B|------------------------------------------------------------------|
G|--12p9-----------X4----------------12-12-------12p9---------------|
D|--------10h9h10-----Then---10h9h10---------X4-------10h9h10---X4--|
A|------------------------------------------------------------------|
E|------------------------------------------------------------------|

e|------------------------------------------------------------------|
B|-----------------------------------------------------------12-12--|
G|-------------12-12-----------12-12----------14-14-----------------|
D|---10h9h10----------10h9h10---------10h9h10--------10h9h10--------|
A|------------------------------------------------------------------|
E|------------------------------------------------------------------|

Overdrive

Come Break Me Down…
e|------------------------------------------------------------------|
B|------------------------------------------------------------------|
G|-------5------------7--------------11----------9-----------4------|
D|-----5---X12------7----X12------11—-X7-------9----X12----4---X2---|
A|---3------------5-------------9------------7-----------2----------|
E|------------------------------------------------------------------|


Overdrive
Before Look At My Eyes…(Sorry Not Picked Ive Just Wrote It Like That)
e|------------------------------------------------------------------|
B|------------------------------------------------------------------|
G|-------5------------7------------11--------9----------------------|
D|-----5---X2-------7----X2------11—--X2----9----X12----------------|
A|---3------------5-------------9----------7------------------------|
E|------------------------------------------------------------------|

Back To First Chorus
e|------------------------------------------------------------------|
B|------------------------------------------------------------------|
G|------------------------------------------------------------------|
D|------------------------------------------------------------------|
A|------------------------------------------------------------------|
E|------------------------------------------------------------------|

Bridge
e|------------------------------------------------------------------|
B|------------------------------------------------------------------|
G|--2-----4-----9-----5-----7-----9------5------7------9------------|
D|--2-X6--4-X6--9-X24-5-X12-7-X12-9-X12--5-X12--7-X12--9-X12--------|
A|--0-----2-----7-----3-----5-----7------3------5------7------------|
E|------------------------------------------------------------------|

e|------------------------------------------------------------------|
B|------------------------------------------------------------------|
G|--5------7------9-------------------------------------------------|
D|--5-X12--7-X12--9—X12---------------------------------------------|
A|--3------5------7-------------------------------------------------|
E|------------------------------------------------------------------|


Play First Chord Until “Whoa” Bit Finishes
e|------------------------------------------------------------------|
B|------------------------------------------------------------------|
G|---------16------10-------8---------------------------------------|
D|--14--------X7-------X3------X3-----------------------------------|
A|--14-----14------12-------10--------------------------------------|
E|--12--------------------------------------------------------------|


Repeat Second Chorus
Then End With Second Verse X1


| /  slide up
| \  slide down
| h  hammer-on
| p  pull-off
| ~  vibrato
| +  harmonic
| x  Mute note
===============================================================================
Tap to rate this tab
 
# A B C D E F G H I J K L M N O P Q R S T U V W X Y Z