Song name
# A B C D E F G H I J K L M N O P Q R S T U V W X Y Z

30 Seconds To Mars - Closer To The Edge tab

Band -  30 Seconds To Mars
Album - This Is War
Song -  Closer To The Edge
Tabbed by Callum Philpott
Email - cheesenachos@hotmail.co.uk

Key:

PM - Palm Mute
~  - Let Ring

Order:

Intro
Verse
Chorus x 2
Verse  x 2
Chorus x 2
Bridge x 3
Chrous x 4


Note The guitar doesn't come in untill 0:32

Intro/Verse
  e|------------------------------------------------------|
  B|------------------------------------------------------|
  G|--5-5-5-5-5-5-5-5-5-5-5-5-5-5-5-5-5-5-3-3-3-3-3-3-3-3-|
  D|--4-4-4-4-4-4-4-4-4-4-4-4-4-4-4-4-4-4-3-3-3-3-3-3-3-3-|
  A|--4-4-4-4-4-4-4-4-4-4-4-4-4-4-4-4-4-4-1-1-1-1-1-1-1-1-|
  E|--2-2-2-2-2-2-2-2-2-2-2-2-2-2-2-2-2-2-----------------|
PM      . .   . .   .   . .   . .   .   .   . .   . .   .

  e|------------------------------------------------------------------|
  B|------------------------------------------------------------------|
  G|--3-3-3-3-3-3-3-3-8-8-8-8-8-8-8-8-6-6-6-6-6-6-6-6-4-4-4-4-4-4-4-4-|
  D|--3-3-3-3-3-3-3-3-8-8-8-8-8-8-8-8-6-6-6-6-6-6-6-6-4-4-4-4-4-4-4-4-|
  A|--1-1-1-1-1-1-1-1-6-6-6-6-6-6-6-6-4-4-4-4-4-4-4-4-2-2-2-2-2-2-2-2-|
  E|------------------------------------------------------------------|
PM      . .   . .   .   . .   . .   .   . .   . .   .   . .   . .   .

  e|------------------|
  B|------------------|
  G|--4-4-4-4-4-4-4-4-|
  D|--4-4-4-4-4-4-4-4-|
  A|--2-2-2-2-2-2-2-2-|
  E|------------------|
PM      . .   . .   .

Chorus
  e|-----------------------------------------------------------------------|
  B|-----------------------------------------------------------------------|
  G|--5555555555555555-3333333333333333-88888888-66666666-4444444444444444-|
  D|--4444444444444444-3333333333333333-88888888-66666666-4444444444444444-|
  A|--4444444444444444-1111111111111111-66666666-44444444-2222222222222222-|
  E|--2222222222222222-----------------------------------------------------|

Bridge(you will need to hear the song for the timing)
  e|----------------------------------------------------------------------|
  B|----------------------------------------------------------------------|
  G|--11-11-11-11---6-6-6-11-11-11-11---6-6-6-11-11-11-11--6-6-6~--4-4-4~-|
  D|--11-11-11-11---6-6-6-11-11-11-11---6-6-6-11-11-11-11--6-6-6~--4-4-4~-|
  A|--9--9--9--9----4-4-4-9--9--9--9----4-4-4-9--9--9--9---4-4-4~--2-2-2~-|
  E|----------------------------------------------------------------------|

  e|---------|
  B|---------|
  G|--6-6-6~-|
  D|--6-6-6~-|
  A|--4-4-4~-|
  E|---------|

Outro
  e|-----
  B|-----
  G|--5~-
  D|--4~-
  A|--4~-
  E|--2~-


Lyrics:

I don't remember one moment I tried to forget
I lost myself yet I'm better not sad
Now I'm closer to the edge

It was a a thousand to one and a million to two
Time to go down in flames and I'm taking you
Closer to the edge

No I'm not saying I'm sorry
One day, maybe we'll meet again
No I'm not saying I'm sorry
One day, maybe we'll meet again
No, no, no, no

Can you imagine a time when the truth ran free
A birth of a song, a death of a dream
Closer to the edge
This never ending story, hate 4 wheel driving fate
We all fall short of glory, lost in ourself

No I'm not saying I'm sorry
One day, maybe we'll meet again
No I'm not saying I'm sorry
One day, maybe we'll meet again
No, no, no, no

No, no, no, no
I will never forget
No, no
I will never regret
No, no
I will live my life
No, no, no, no
I will never forget
No, no
I will never regret
No, no
I will live my life

No I'm not saying I'm sorry
One day, maybe we'll meet again
No, no
No, I'm not saying I'm sorry
One day, maybe we'll meet again
No, no, no, no

Closer to the edge
Closer to the edge
No, no, no, no
Closer to the edge
Closer to the edge
No, no, no, no

Closer to the edge
Tap to rate this tab
# A B C D E F G H I J K L M N O P Q R S T U V W X Y Z