30 Seconds To Mars - Stronger tab


30 Seconds to Mars                                                  30 Seconds to Mars

---------                                                                    ---------
2007                                                                              2007


                                       "Stronger"

                              (Kanye West / Daft Punk cover)
                                BBC Radio 1's Live Lounge







E:---------11--------11--------11--------11----------9--------9--------9--------9--|
B:----11--------11--------11--------11----------11-------11-------11-------11------|
G:--8----8----8----8----8----8----8----8------8----8---8----8---8----8---8----8----|
D:---------------------------------------------------------------------------------|x6
A:---------------------------------------------------------------------------------|
E:---------------------------------------------------------------------------------|
 	
D#m                         C#       G#/C               G#/C - x3111x
N-now th-th-that that don't kill me
                 B
Can only make me stronger
D#m                   C#       G#/C
I need you to hurry up now
                  B
Cause I can't wait much longer
D#m                         C#       G#/C
I know I got to be right now
                   B
Cause I can't get much wronger
D#m                         C#       G#/C
Man I been waitin' all night now
                     B
That's how long I've been on ya


D#m    C#    G#/C    B
I need you right now
D"m    C#    G#/C    B
I need you right now

E:---------------------------------------------------------------------------------|
B:---------------------------------------------------9-7---------------------------|
G:----------------------------------------------8--------8-------------------------|
D:------------8------------------------------10---10-------10------9---------------|x4
A:-------9------9----9-----8-9---11-9-8-9------------------------9---9-------------|
E:--6-11---11-----11-----9-----9-----------8-------------------7-------7-7-7-7-----|


Let's get lost tonight
You can be my black Kate Moss tonight
Play secretary I'm the boss tonight.
And you don't give a damn what they all say, right?
Awesome, the Christian in Christian Dior
Damn they don't make 'em like this anymore
I ask, cause I'm not sure
Anybody out there real anymore?
Bow in the presence of


Greatness
Cause right now thou has forsaken us
You should be honored by my lateness
That I would even show up to this fakeness
So go ahead go nuts, go apish
Especially in my pastel, and my bapeness
Act like you can't tell who made this
New gospel homey take six, and take this, haters

N-n-now th-that that don't kill me
Can only make me stronger
I need you to hurry up now
Cause I can't get much longer
I know I got to be right now
Cause I can't get much wronger
Man I been waitin' all night now
That's how long I've been on ya

I need you right now
I need you right now

I don't know if you got a minute now
If you made plans or not
God put me in your plans or not
I'm trippin', this drink got me sayin' alot
But I know that God put you in front of me
So how the hell could you front on me
There's a thousand yous
There's only one of me
I'm trippin', I'm caught up in the moment right?
this is Louis Vuitton Don 

Night
So we goin' do everything that Jay'll like
Heard they'd do anything for a Klondike
Well I'd do anything for a blonde dyke
And we'll do anything for the limelight
And we'll do anything when the time is right
Baby you're makin' it
Harder, better, faster, stronger

N-n-now th-that that don't kill me
Can only make me stronger
I need you to hurry up now
Cause I can't wait much longer
I know I got to be right now
Cause I can't get much wronger
Man I been waitin' all night now
That's how long I've been on ya

I need you right now
I need you right now
I need you right now
I need you right now

Don't act like I never told you
Don't act like I never told you
Don't act like I never told you
Don't act like I never told you
Don't act like I never told you
Don't act like I never told you
Don't act like I never told you
Don't act like I never told you 

Tap to rate this tab
 
# A B C D E F G H I J K L M N O P Q R S T U V W X Y Z