Song name
# A B C D E F G H I J K L M N O P Q R S T U V W X Y Z

30 Seconds To Mars - This Is War Acoustic tab

Tabbed by TotoTheCop

Hi this is my Acoustic tab for "this is war"
Standard tuning

Intro:


A Warning to the people, the Good and the Evil
This Is War
To the Soldier, The Civillian, The Martyr, The Victim
This is War

-------------------------------------------------------|
-------------------------------------------------------|
-------------------------------------------------------|
--------7777-------5555------3333-------5555-----------| x6
----555--------333--------111-------333----------------|
-------------------------------------------------------|
(Play it twice without singing then four times with singing)

Bridge 1:

Its the moment...        The moment to live and ... die.

The moment to fight...   ...to fight, to fight, to fight
-----------------------------------------------------|
-----------------------------------------------------|
--3-3-3-3-3-3-3-3----------5-5-5-5-5-5-5-5-----------|
--3-3-3-3-3-3-3-3----------5-5-5-5-5-5-5-5-----------|
--1-1-1-1-1-1-1-1----------3-3-3-3-3-3-3-3-----------|
-----------------------------------------------------|
(just strum the powerchords quickly)

Chorus:

To the right To the left we will fight to the death
To the Edge of the Earth, It's a Brave ... the last to the first
To the right, To the left, We will fight to the death
To the Edge of the Earth, its a Brave New World Brave New World
----------------------------------------------------|
----------------------------------------------------|
-------10-----------5-------------7-------------3---|
-------10-----------5-------------7-------------3---|
-------7------------3-------------5-------------1---|
----------------------------------------------------|


A warning to the prophet, the liar, the honest
This is War
To the leader, the pariah, the victor, the messiah
This is war

-------------------------------------------------------|
-------------------------------------------------------|
-------------------------------------------------------|
--------7777-------5555------3333-------5555-----------| x4
----555--------333--------111-------333----------------|
-------------------------------------------------------|

Bridge:

Its the moment of truth and the moment to lie
Its the moment to live and the moment to die
The moment to fight, the moment to fight, to fight, to fight, to fight

Chorus:

To the right, To the left, we will fight to the death
To the Edge of the Earth, It's a Brave New World from the last to the first
To the right, To the left, We will fight to the death
To the Edge of the Earth its a Brave New World, Brave New World, Its A Brave New World

(like in the chorus)

I do believe in the light, raise your hands up to the sky
The fight is done, the war is won, lift your hands towards the sun
towards the sun, towards the sun, the war is won

Chorus:

To the right, To the left, we will fight to the death
To the Edge of the Earth, It's a Brave New World from the last to the first
To the right, To the left, We will fight to the death
To the Edge of the Earth its a Brave New World Brave New World Its A Brave New World
A Brave New World The War is Won The War is Won
A Brave New World

The war is won, the war is won, a brave new world


(like in the chorus)

I believe in nothing, not the end and not the start
I believe in nothing, not the earth and not the stars
I believe in nothing, not the day and not the dark
I believe in nothing but the beating of our hearts
I believe in nothing 100 suns until we part
I believe in nothing not in satan, not in god
I believe in nothing, not in peace and not in war
I believe in nothing but the truth of who we are

I hope you'll understand this Tab  ;D If something is unclear tell me about
Tap to rate this tab
 
# A B C D E F G H I J K L M N O P Q R S T U V W X Y Z